0
SECTION
2
HEADER
9
$MEASUREMENT
70
1
0
ENDSEC
0
SECTION
2
TABLES
0
TABLE
2
LTYPE
0
LTYPE
72
65
70
64
2
CONTINUOUS
3
______
73
0
40
0
0
ENDTAB
0
TABLE
2
LAYER
0
LAYER
2
DEFAULT_255_2_778
70
0
62
255
6
CONTINUOUS
0
LAYER
2
DEFAULT_255_1_234
70
0
62
255
6
CONTINUOUS
0
ENDTAB
0
ENDSEC
0
SECTION
2
ENTITIES
0
ARC
8
DEFAULT_255_2_778
10
3.5700693
20
75.805203
40
0.7914215
50
129.1312896
51
180.1450914
0
ARC
8
DEFAULT_255_2_778
10
3.5703345
20
75.8056901
40
0.7912112
50
89.854026
51
129.1684493
0
ARC
8
DEFAULT_255_2_778
10
25.7993937
20
75.8053767
40
0.7915249
50
39.4792447
51
90.147911
0
ARC
8
DEFAULT_255_2_778
10
25.7999935
20
75.8052233
40
0.7911595
50
359.8533901
51
39.5154338
0
ARC
8
DEFAULT_255_2_778
10
25.7996693
20
-1.9863492
40
0.7914836
50
309.4761667
51
0.1482649
0
ARC
8
DEFAULT_255_2_778
10
25.799398
20
-1.9867803
40
0.7913235
50
269.8517415
51
309.511178
0
ARC
8
DEFAULT_255_2_778
10
3.570342
20
-1.9867221
40
0.7913815
50
219.1282118
51
270.1454017
0
ARC
8
DEFAULT_255_2_778
10
3.5700247
20
-1.9863397
40
0.7913769
50
179.8524075
51
219.1641908
0
LINE
8
DEFAULT_255_2_778
10
3.5723503
20
76.5968989
11
25.7973503
21
76.5968989
0
LINE
8
DEFAULT_255_2_778
10
26.5911503
20
75.8031989
11
26.5911503
21
-1.9843011
0
LINE
8
DEFAULT_255_2_778
10
25.7973503
20
-2.7781011
11
3.5723503
21
-2.7781011
0
LINE
8
DEFAULT_255_2_778
10
2.7786503
20
-1.9843011
11
2.7786503
21
75.8031989
0
LINE
8
DEFAULT_255_1_234
10
11.1849484
20
0.0153343
11
11.1849484
21
-0.110764
0
LINE
8
DEFAULT_255_1_234
10
11.1849484
20
-0.110764
11
10.6781458
21
-0.110764
0
LINE
8
DEFAULT_255_1_234
10
10.6781458
20
-0.110764
11
10.6781458
21
-0.5252017
0
LINE
8
DEFAULT_255_1_234
10
10.6781458
20
-0.5252017
11
11.2668722
21
-0.5252017
0
LINE
8
DEFAULT_255_1_234
10
11.2668722
20
-0.5252017
11
11.2668722
21
-0.6513
0
LINE
8
DEFAULT_255_1_234
10
11.2668722
20
-0.6513
11
10.5239364
21
-0.6513
0
LINE
8
DEFAULT_255_1_234
10
10.5239364
20
-0.6513
11
10.5239364
21
0.5181211
0
LINE
8
DEFAULT_255_1_234
10
10.5239364
20
0.5181211
11
11.2588404
21
0.5181211
0
LINE
8
DEFAULT_255_1_234
10
11.2588404
20
0.5181211
11
11.2588404
21
0.3912196
0
LINE
8
DEFAULT_255_1_234
10
11.2588404
20
0.3912196
11
10.6781458
21
0.3912196
0
LINE
8
DEFAULT_255_1_234
10
10.6781458
20
0.3912196
11
10.6781458
21
0.0153343
0
LINE
8
DEFAULT_255_1_234
10
10.6781458
20
0.0153343
11
11.1849484
21
0.0153343
0
LINE
8
DEFAULT_255_1_234
10
12.3575822
20
0.5181211
11
12.3575822
21
-0.6513
0
LINE
8
DEFAULT_255_1_234
10
12.3575822
20
-0.6513
11
12.2025697
21
-0.6513
0
LINE
8
DEFAULT_255_1_234
10
12.2025697
20
-0.6513
11
12.2025697
21
-0.110764
0
LINE
8
DEFAULT_255_1_234
10
12.2025697
20
-0.110764
11
11.6130401
21
-0.110764
0
LINE
8
DEFAULT_255_1_234
10
11.6130401
20
-0.110764
11
11.6130401
21
-0.6513
0
LINE
8
DEFAULT_255_1_234
10
11.6130401
20
-0.6513
11
11.4588307
21
-0.6513
0
LINE
8
DEFAULT_255_1_234
10
11.4588307
20
-0.6513
11
11.4588307
21
0.5181211
0
LINE
8
DEFAULT_255_1_234
10
11.4588307
20
0.5181211
11
11.6130401
21
0.5181211
0
LINE
8
DEFAULT_255_1_234
10
11.6130401
20
0.5181211
11
11.6130401
21
0.0153343
0
LINE
8
DEFAULT_255_1_234
10
11.6130401
20
0.0153343
11
12.2025697
21
0.0153343
0
LINE
8
DEFAULT_255_1_234
10
12.2025697
20
0.0153343
11
12.2025697
21
0.5181211
0
LINE
8
DEFAULT_255_1_234
10
12.2025697
20
0.5181211
11
12.3575822
21
0.5181211
0
LINE
8
DEFAULT_255_1_234
10
12.9173944
20
-0.0938974
11
12.9173944
21
-0.2151766
0
LINE
8
DEFAULT_255_1_234
10
12.9173944
20
-0.2151766
11
12.5254456
21
-0.2151766
0
LINE
8
DEFAULT_255_1_234
10
12.5254456
20
-0.2151766
11
12.5254456
21
-0.0938974
0
LINE
8
DEFAULT_255_1_234
10
12.5254456
20
-0.0938974
11
12.9173944
21
-0.0938974
0
LINE
8
DEFAULT_255_1_234
10
13.4089368
20
-0.6513
11
13.0852577
21
-0.6513
0
LINE
8
DEFAULT_255_1_234
10
13.0852577
20
-0.6513
11
13.0852577
21
0.5181211
0
LINE
8
DEFAULT_255_1_234
10
13.0852577
20
0.5181211
11
13.4153622
21
0.5181211
0
LINE
8
DEFAULT_255_1_234
10
13.9309998
20
-0.0272339
11
13.9309998
21
-0.1019291
0
LINE
8
DEFAULT_255_1_234
10
13.419378
20
0.3912196
11
13.2394671
21
0.3912196
0
LINE
8
DEFAULT_255_1_234
10
13.2394671
20
0.3912196
11
13.2394671
21
-0.5252017
0
LINE
8
DEFAULT_255_1_234
10
13.2394671
20
-0.5252017
11
13.4017082
21
-0.5252017
0
LINE
8
DEFAULT_255_1_234
10
13.7783967
20
-0.0987164
11
13.7783967
21
-0.0304466
0
ARC
8
DEFAULT_255_1_234
10
13.4192564
20
-0.0684106
40
0.5865446
50
75.4101064
51
90.3804066
0
ARC
8
DEFAULT_255_1_234
10
13.4422078
20
0.0272492
40
0.4881916
50
60.145586
51
75.1888407
0
ARC
8
DEFAULT_255_1_234
10
13.4580853
20
0.0549199
40
0.4562893
50
26.5253612
51
60.1450928
0
ARC
8
DEFAULT_255_1_234
10
13.3460602
20
-0.0044842
40
0.5830602
50
7.4030428
51
26.8320788
0
ARC
8
DEFAULT_255_1_234
10
13.1866359
20
-0.0293196
40
0.7443669
50
0.1605367
51
7.7176192
0
ARC
8
DEFAULT_255_1_234
10
13.2030264
20
-0.1057566
40
0.7279835
50
348.7289388
51
0.3012466
0
ARC
8
DEFAULT_255_1_234
10
13.3686694
20
-0.1386614
40
0.559104
50
333.0706509
51
348.7181832
0
ARC
8
DEFAULT_255_1_234
10
13.4653452
20
-0.1911681
40
0.4491417
50
299.2531685
51
333.4571258
0
ARC
8
DEFAULT_255_1_234
10
13.4292591
20
-0.1226172
40
0.5265881
50
278.107187
51
299.0339503
0
ARC
8
DEFAULT_255_1_234
10
13.403667
20
0.0281216
40
0.679442
50
270.4443897
51
278.4511052
0
ARC
8
DEFAULT_255_1_234
10
13.40575
20
-0.0647787
40
0.4604407
50
269.4970433
51
284.0205042
0
ARC
8
DEFAULT_255_1_234
10
13.4412801
20
-0.2013022
40
0.3193797
50
283.7700273
51
318.1555492
0
ARC
8
DEFAULT_255_1_234
10
13.4075559
20
-0.1760633
40
0.3613588
50
318.7415601
51
343.6873628
0
ARC
8
DEFAULT_255_1_234
10
13.2271583
20
-0.1197168
40
0.5503313
50
343.3325091
51
355.8548958
0
ARC
8
DEFAULT_255_1_234
10
13.0173267
20
-0.0997681
40
0.7610708
50
355.4988528
51
0.0791727
0
ARC
8
DEFAULT_255_1_234
10
13.095589
20
-0.026222
40
0.6828208
50
359.6455037
51
9.8607896
0
ARC
8
DEFAULT_255_1_234
10
13.3316587
20
0.0164099
40
0.4429406
50
9.6571907
51
26.1932807
0
ARC
8
DEFAULT_255_1_234
10
13.4244576
20
0.0595118
40
0.3406537
50
26.5777228
51
40.1532208
0
ARC
8
DEFAULT_255_1_234
10
13.4500303
20
0.0794619
40
0.308246
50
40.3840491
51
80.1431104
0
ARC
8
DEFAULT_255_1_234
10
13.417342
20
-0.0654667
40
0.4566909
50
79.2152159
51
89.7445637
0
ARC
8
DEFAULT_255_1_234
10
14.5523462
20
0.2103703
40
0.2822356
50
338.8763615
51
0.5166041
0
ARC
8
DEFAULT_255_1_234
10
14.5692116
20
0.2058208
40
0.2648703
50
325.8412414
51
338.4795939
0
ARC
8
DEFAULT_255_1_234
10
14.5301484
20
0.2329042
40
0.3124019
50
296.7586019
51
325.753654
0
ARC
8
DEFAULT_255_1_234
10
14.5013592
20
0.2813789
40
0.368668
50
296.0902311
51
297.3618122
0
ARC
8
DEFAULT_255_1_234
10
14.527105
20
-0.3740959
40
0.3518806
50
47.9009248
51
67.1946869
0
ARC
8
DEFAULT_255_1_234
10
14.5467292
20
-0.3494605
40
0.320451
50
35.236241
51
47.551371
0
ARC
8
DEFAULT_255_1_234
10
14.572891
20
-0.3320007
40
0.2890103
50
359.2759738
51
35.4014081
0
ARC
8
DEFAULT_255_1_234
10
14.4983941
20
-0.3393174
40
0.3635026
50
343.1294516
51
0.5776525
0
ARC
8
DEFAULT_255_1_234
10
14.5708486
20
-0.359267
40
0.2883832
50
310.8497458
51
342.744803
0
ARC
8
DEFAULT_255_1_234
10
14.5290599
20
-0.3115706
40
0.3517954
50
281.5473923
51
310.9169905
0
ARC
8
DEFAULT_255_1_234
10
14.4934048
20
-0.1562916
40
0.5110832
50
269.6192722
51
281.9789957
0
ARC
8
DEFAULT_255_1_234
10
14.4861837
20
-0.1562172
40
0.5111606
50
257.4584469
51
270.4287458
0
ARC
8
DEFAULT_255_1_234
10
14.448098
20
-0.3165656
40
0.3463762
50
228.7553743
51
257.8484423
0
ARC
8
DEFAULT_255_1_234
10
14.4171179
20
-0.3538558
40
0.297916
50
184.0104442
51
228.5071787
0
ARC
8
DEFAULT_255_1_234
10
14.5334123
20
-0.3361488
40
0.4152734
50
179.9315461
51
185.3254504
0
ARC
8
DEFAULT_255_1_234
10
14.4157768
20
-0.3324008
40
0.2976554
50
145.6795913
51
180.6259649
0
ARC
8
DEFAULT_255_1_234
10
14.4321118
20
-0.3438071
40
0.3175776
50
115.5537925
51
145.6416199
0
ARC
8
DEFAULT_255_1_234
10
14.4662048
20
-0.4048972
40
0.3874232
50
113.2437915
51
116.2054627
0
ARC
8
DEFAULT_255_1_234
10
14.4509261
20
0.234958
40
0.3154751
50
222.9548379
51
244.1372485
0
ARC
8
DEFAULT_255_1_234
10
14.4387336
20
0.2212834
40
0.2972382
50
213.3439227
51
222.6271327
0
ARC
8
DEFAULT_255_1_234
10
14.419527
20
0.2082308
40
0.274019
50
180.4316517
51
213.2713999
0
ARC
8
DEFAULT_255_1_234
10
14.4770272
20
0.212911
40
0.33158
50
179.9992944
51
181.1655061
0
ARC
8
DEFAULT_255_1_234
10
14.5179689
20
0.2163561
40
0.3725376
50
164.6186108
51
180.5292368
0
ARC
8
DEFAULT_255_1_234
10
14.4281552
20
0.2405101
40
0.2795349
50
132.2454369
51
164.5092287
0
ARC
8
DEFAULT_255_1_234
10
14.4568656
20
0.2080028
40
0.3229019
50
100.7052766
51
132.1387266
0
ARC
8
DEFAULT_255_1_234
10
14.4873628
20
0.0702086
40
0.4639835
50
89.6732617
51
101.2449487
0
ARC
8
DEFAULT_255_1_234
10
14.4935826
20
0.087699
40
0.4464999
50
76.2876631
51
90.4586123
0
ARC
8
DEFAULT_255_1_234
10
14.5242058
20
0.209922
40
0.3205023
50
47.8240157
51
76.4266918
0
ARC
8
DEFAULT_255_1_234
10
14.5464608
20
0.235959
40
0.2862661
50
6.9168658
51
47.6261438
0
ARC
8
DEFAULT_255_1_234
10
14.4278011
20
0.214037
40
0.4067708
50
359.8419705
51
7.9694496
0
ARC
8
DEFAULT_255_1_234
10
14.4619908
20
-0.3300075
40
0.2513121
50
359.4454068
51
16.9256425
0
ARC
8
DEFAULT_255_1_234
10
14.5088719
20
-0.3170967
40
0.2027071
50
17.292259
51
45.462717
0
ARC
8
DEFAULT_255_1_234
10
14.5034655
20
-0.3217566
40
0.2098212
50
45.3028762
51
83.1921472
0
ARC
8
DEFAULT_255_1_234
10
14.4891339
20
-0.4019105
40
0.2911472
50
82.2614531
51
90.143954
0
ARC
8
DEFAULT_255_1_234
10
14.4860459
20
-0.378605
40
0.2678513
50
89.4959189
51
104.8579811
0
ARC
8
DEFAULT_255_1_234
10
14.4683718
20
-0.311611
40
0.1985654
50
104.8855873
51
135.2448349
0
ARC
8
DEFAULT_255_1_234
10
14.4733491
20
-0.3160664
40
0.2052373
50
135.3398955
51
172.104394
0
ARC
8
DEFAULT_255_1_234
10
14.5540549
20
-0.3315075
40
0.2873299
50
171.2651929
51
180.1859362
0
ARC
8
DEFAULT_255_1_234
10
14.537125
20
-0.3347267
40
0.2704083
50
179.515471
51
193.6466734
0
ARC
8
DEFAULT_255_1_234
10
14.4555019
20
-0.3555223
40
0.1861855
50
193.3540587
51
225.8256931
0
ARC
8
DEFAULT_255_1_234
10
14.4595776
20
-0.3484476
40
0.1941102
50
226.418029
51
255.8553723
0
ARC
8
DEFAULT_255_1_234
10
14.4852209
20
-0.2548002
40
0.2911917
50
255.4655572
51
268.7985967
0
ARC
8
DEFAULT_255_1_234
10
14.4899401
20
-0.1709509
40
0.3751331
50
268.3464808
51
270.0104874
0
ARC
8
DEFAULT_255_1_234
10
14.4922789
20
-0.2393862
40
0.3067064
50
269.575914
51
282.0823146
0
ARC
8
DEFAULT_255_1_234
10
14.5147698
20
-0.3388197
40
0.2047712
50
281.7522535
51
306.6056425
0
ARC
8
DEFAULT_255_1_234
10
14.5246124
20
-0.3549513
40
0.1859604
50
307.1350025
51
314.0277951
0
ARC
8
DEFAULT_255_1_234
10
14.5210208
20
-0.3523234
40
0.1903475
50
314.2553419
51
350.169324
0
ARC
8
DEFAULT_255_1_234
10
14.4358677
20
-0.3338591
40
0.2774269
50
349.4145679
51
0.2930737
0
ARC
8
DEFAULT_255_1_234
10
14.487911
20
0.1820353
40
0.2300764
50
89.477591
51
105.729794
0
ARC
8
DEFAULT_255_1_234
10
14.4743023
20
0.2325637
40
0.1777519
50
105.922966
51
135.1662921
0
ARC
8
DEFAULT_255_1_234
10
14.4763526
20
0.2311419
40
0.1802087
50
135.3053131
51
168.9882338
0
ARC
8
DEFAULT_255_1_234
10
14.5591098
20
0.2121721
40
0.2650806
50
168.3802067
51
180.3602358
0
ARC
8
DEFAULT_255_1_234
10
14.5362677
20
0.2084041
40
0.2422425
50
179.5029707
51
194.9126783
0
ARC
8
DEFAULT_255_1_234
10
14.4777338
20
0.193011
40
0.1817188
50
194.9722181
51
224.1943972
0
ARC
8
DEFAULT_255_1_234
10
14.4749206
20
0.1907169
40
0.1781027
50
224.2961434
51
262.0157375
0
ARC
8
DEFAULT_255_1_234
10
14.4891449
20
0.2638661
40
0.2525492
50
261.1250369
51
270.1959853
0
ARC
8
DEFAULT_255_1_234
10
14.4921204
20
0.2451339
40
0.233825
50
269.4825617
51
285.0988277
0
ARC
8
DEFAULT_255_1_234
10
14.5075363
20
0.187299
40
0.1739712
50
285.1585659
51
315.9484648
0
ARC
8
DEFAULT_255_1_234
10
14.4986375
20
0.1954886
40
0.1860616
50
316.0412958
51
351.9162715
0
ARC
8
DEFAULT_255_1_234
10
14.425333
20
0.2096245
40
0.2606517
50
351.1056823
51
0.1936567
0
ARC
8
DEFAULT_255_1_234
10
14.4516158
20
0.2126369
40
0.234377
50
359.4789506
51
16.0679113
0
ARC
8
DEFAULT_255_1_234
10
14.4992117
20
0.225481
40
0.1850875
50
16.3251951
51
44.791304
0
ARC
8
DEFAULT_255_1_234
10
14.4974399
20
0.2255339
40
0.186312
50
44.3958661
51
88.2498933
0
ARC
8
DEFAULT_255_1_234
10
14.4900953
20
0.1644154
40
0.2476868
50
86.9833827
51
90.0200148
0
LINE
8
DEFAULT_255_1_234
10
15.7485821
20
0.0153343
11
15.7485821
21
-0.110764
0
LINE
8
DEFAULT_255_1_234
10
15.7485821
20
-0.110764
11
15.2417794
21
-0.110764
0
LINE
8
DEFAULT_255_1_234
10
15.2417794
20
-0.110764
11
15.2417794
21
-0.5252017
0
LINE
8
DEFAULT_255_1_234
10
15.2417794
20
-0.5252017
11
15.8305059
21
-0.5252017
0
LINE
8
DEFAULT_255_1_234
10
15.8305059
20
-0.5252017
11
15.8305059
21
-0.6513
0
LINE
8
DEFAULT_255_1_234
10
15.8305059
20
-0.6513
11
15.0875701
21
-0.6513
0
LINE
8
DEFAULT_255_1_234
10
15.0875701
20
-0.6513
11
15.0875701
21
0.5181211
0
LINE
8
DEFAULT_255_1_234
10
15.0875701
20
0.5181211
11
15.8224741
21
0.5181211
0
LINE
8
DEFAULT_255_1_234
10
15.8224741
20
0.5181211
11
15.8224741
21
0.3912196
0
LINE
8
DEFAULT_255_1_234
10
15.8224741
20
0.3912196
11
15.2417794
21
0.3912196
0
LINE
8
DEFAULT_255_1_234
10
15.2417794
20
0.3912196
11
15.2417794
21
0.0153343
0
LINE
8
DEFAULT_255_1_234
10
15.2417794
20
0.0153343
11
15.7485821
21
0.0153343
0
LINE
8
DEFAULT_255_1_234
10
16.3461435
20
-0.6513
11
16.0224644
21
-0.6513
0
LINE
8
DEFAULT_255_1_234
10
16.0224644
20
-0.6513
11
16.0224644
21
0.5181211
0
LINE
8
DEFAULT_255_1_234
10
16.0224644
20
0.5181211
11
16.3525688
21
0.5181211
0
LINE
8
DEFAULT_255_1_234
10
16.8682064
20
-0.0272339
11
16.8682064
21
-0.1019291
0
LINE
8
DEFAULT_255_1_234
10
16.3565847
20
0.3912196
11
16.1766738
21
0.3912196
0
LINE
8
DEFAULT_255_1_234
10
16.1766738
20
0.3912196
11
16.1766738
21
-0.5252017
0
LINE
8
DEFAULT_255_1_234
10
16.1766738
20
-0.5252017
11
16.3389149
21
-0.5252017
0
LINE
8
DEFAULT_255_1_234
10
16.7156034
20
-0.0987164
11
16.7156034
21
-0.0304466
0
ARC
8
DEFAULT_255_1_234
10
16.3564631
20
-0.0684106
40
0.5865446
50
75.4101064
51
90.3804066
0
ARC
8
DEFAULT_255_1_234
10
16.3794145
20
0.0272492
40
0.4881916
50
60.145586
51
75.1888407
0
ARC
8
DEFAULT_255_1_234
10
16.395292
20
0.0549199
40
0.4562893
50
26.5253612
51
60.1450928
0
ARC
8
DEFAULT_255_1_234
10
16.2832669
20
-0.0044842
40
0.5830602
50
7.4030428
51
26.8320788
0
ARC
8
DEFAULT_255_1_234
10
16.1238426
20
-0.0293196
40
0.7443669
50
0.1605367
51
7.7176192
0
ARC
8
DEFAULT_255_1_234
10
16.140233
20
-0.1057566
40
0.7279835
50
348.7289388
51
0.3012466
0
ARC
8
DEFAULT_255_1_234
10
16.3058761
20
-0.1386614
40
0.559104
50
333.0706509
51
348.7181832
0
ARC
8
DEFAULT_255_1_234
10
16.4025519
20
-0.1911681
40
0.4491417
50
299.2531685
51
333.4571258
0
ARC
8
DEFAULT_255_1_234
10
16.3664658
20
-0.1226172
40
0.5265881
50
278.107187
51
299.0339503
0
ARC
8
DEFAULT_255_1_234
10
16.3408737
20
0.0281216
40
0.679442
50
270.4443897
51
278.4511052
0
ARC
8
DEFAULT_255_1_234
10
16.3429567
20
-0.0647787
40
0.4604407
50
269.4970433
51
284.0205042
0
ARC
8
DEFAULT_255_1_234
10
16.3784868
20
-0.2013022
40
0.3193797
50
283.7700273
51
318.1555492
0
ARC
8
DEFAULT_255_1_234
10
16.3447626
20
-0.1760633
40
0.3613588
50
318.7415601
51
343.6873628
0
ARC
8
DEFAULT_255_1_234
10
16.164365
20
-0.1197168
40
0.5503313
50
343.3325091
51
355.8548958
0
ARC
8
DEFAULT_255_1_234
10
15.9545334
20
-0.0997681
40
0.7610708
50
355.4988528
51
0.0791727
0
ARC
8
DEFAULT_255_1_234
10
16.0327957
20
-0.026222
40
0.6828208
50
359.6455037
51
9.8607896
0
ARC
8
DEFAULT_255_1_234
10
16.2688654
20
0.0164099
40
0.4429406
50
9.6571907
51
26.1932807
0
ARC
8
DEFAULT_255_1_234
10
16.3616643
20
0.0595118
40
0.3406537
50
26.5777228
51
40.1532208
0
ARC
8
DEFAULT_255_1_234
10
16.3872369
20
0.0794619
40
0.308246
50
40.3840491
51
80.1431104
0
ARC
8
DEFAULT_255_1_234
10
16.3545487
20
-0.0654667
40
0.4566909
50
79.2152159
51
89.7445637
0
LINE
8
DEFAULT_255_1_234
10
17.887434
20
0.5181211
11
17.887434
21
0.3912196
0
LINE
8
DEFAULT_255_1_234
10
17.887434
20
0.3912196
11
17.5115487
21
0.3912196
0
LINE
8
DEFAULT_255_1_234
10
17.5115487
20
0.3912196
11
17.5115487
21
-0.6513
0
LINE
8
DEFAULT_255_1_234
10
17.5115487
20
-0.6513
11
17.3581425
21
-0.6513
0
LINE
8
DEFAULT_255_1_234
10
17.3581425
20
-0.6513
11
17.3581425
21
0.3912196
0
LINE
8
DEFAULT_255_1_234
10
17.3581425
20
0.3912196
11
16.9830603
21
0.3912196
0
LINE
8
DEFAULT_255_1_234
10
16.9830603
20
0.3912196
11
16.9830603
21
0.5181211
0
LINE
8
DEFAULT_255_1_234
10
16.9830603
20
0.5181211
11
17.887434
21
0.5181211
0
ARC
8
DEFAULT_255_2_778
10
31.9007682
20
74.2241699
40
11.0854885
50
180.0840769
51
180.110284
0
ARC
8
DEFAULT_255_2_778
10
262.6630055
20
74.5955943
40
241.8480246
50
180.0868647
51
180.0918473
0
ARC
8
DEFAULT_255_2_778
10
597.9520561
20
75.1044927
40
577.1374613
50
180.0830396
51
180.0869218
0
ARC
8
DEFAULT_255_2_778
10
669.2866106
20
75.2090648
40
648.4720924
50
180.077732
51
180.0831444
0
ARC
8
DEFAULT_255_2_778
10
790.361737
20
75.3767128
40
769.5473348
50
180.0733267
51
180.0779842
0
ARC
8
DEFAULT_255_2_778
10
787.0360856
20
75.3727661
40
766.2216813
50
180.0680536
51
180.0733499
0
ARC
8
DEFAULT_255_2_778
10
723.3068274
20
75.2995407
40
702.4923812
50
180.0598348
51
180.068255
0
ARC
8
DEFAULT_255_2_778
10
588.2711598
20
75.1592243
40
567.4566407
50
180.0456571
51
180.0599058
0
ARC
8
DEFAULT_255_2_778
10
422.4931505
20
75.0267726
40
401.6785785
50
180.0278507
51
180.0456073
0
ARC
8
DEFAULT_255_2_778
10
276.8530266
20
74.9569973
40
256.0384379
50
180.0049237
51
180.0280786
0
ARC
8
DEFAULT_255_2_778
10
271.3303529
20
74.9527106
40
250.5157639
50
180.0008322
51
180.0040518
0
ARC
8
DEFAULT_255_2_778
10
154.05429
20
74.9550863
40
133.239701
50
179.9578023
51
180.0025862
0
ARC
8
DEFAULT_255_2_778
10
83.8108951
20
75.0068652
40
62.996287
50
179.8990132
51
179.9578435
0
ARC
8
DEFAULT_255_2_778
10
48.8436273
20
75.0685998
40
28.0289646
50
179.819585
51
179.8992237
0
ARC
8
DEFAULT_255_2_778
10
30.8138506
20
75.1274065
40
9.9990924
50
179.6460695
51
179.8312383
0
ARC
8
DEFAULT_255_2_778
10
22.3145388
20
75.1824588
40
1.4996048
50
179.023405
51
179.7434663
0
ARC
8
DEFAULT_255_2_778
10
20.8404541
20
75.2084738
40
0.0253063
50
173.7189991
51
181.0320833
0
ARC
8
DEFAULT_255_2_778
10
20.821309
20
74.9977411
40
0.2135878
50
89.695023
51
91.6129067
0
ARC
8
DEFAULT_255_2_778
10
20.8554974
20
67.6529698
40
7.5584285
50
90.0805187
51
90.2505434
0
ARC
8
DEFAULT_255_2_778
10
20.9094678
20
36.769944
40
38.4415011
50
90.0357106
51
90.0962728
0
ARC
8
DEFAULT_255_2_778
10
20.9637754
20
-42.6792643
40
117.8907279
50
90.0046031
51
90.0380383
0
ARC
8
DEFAULT_255_2_778
10
20.9739735
20
-67.4247343
40
142.6361988
50
89.9973188
51
90.007901
0
ARC
8
DEFAULT_255_2_778
10
20.9770607
20
-245.9269307
40
321.1383954
50
89.9856871
51
89.9993599
0
ARC
8
DEFAULT_255_2_778
10
20.931998
20
-440.0506551
40
515.262125
50
89.9770232
51
89.9860686
0
ARC
8
DEFAULT_255_2_778
10
20.8382754
20
-682.7063362
40
757.9178243
50
89.9685316
51
89.9772944
0
ARC
8
DEFAULT_255_2_778
10
20.5533698
20
-1201.4371626
40
1276.648729
50
89.9669064
51
89.9685314
0
ARC
8
DEFAULT_255_2_778
10
20.5341245
20
-1220.2149013
40
1295.4264758
50
89.9635761
51
89.9665349
0
ARC
8
DEFAULT_255_2_778
10
20.5898282
20
-1128.2082666
40
1203.4198243
50
89.961453
51
89.9634435
0
ARC
8
DEFAULT_255_2_778
10
21.6564944
20
441.3495905
40
366.1383955
50
269.9597768
51
269.9613686
0
ARC
8
DEFAULT_255_2_778
10
21.4307686
20
102.7537785
40
27.5425082
50
269.9560206
51
269.965085
0
ARC
8
DEFAULT_255_2_778
10
24.0548224
20
3858.0578572
40
3782.8475035
50
269.9600013
51
269.9602975
0
ARC
8
DEFAULT_255_2_778
10
21.5129169
20
186.8614829
40
111.6502492
50
269.9592651
51
269.9624187
0
ARC
8
DEFAULT_255_2_778
10
24.9801887
20
5091.7514122
40
5016.541404
50
269.9595626
51
269.9597442
0
ARC
8
DEFAULT_255_2_778
10
21.472338
20
96.6606978
40
21.4494579
50
269.9552587
51
269.9721186
0
ARC
8
DEFAULT_255_2_778
10
20.8096402
20
73.8346736
40
0.0349919
50
268.4259877
51
279.3086891
0
ARC
8
DEFAULT_255_2_778
10
20.7794581
20
74.8345533
40
1.0352711
50
270.7275861
51
271.6174103
0
ARC
8
DEFAULT_255_2_778
10
20.7253201
20
78.7265156
40
4.9276094
50
270.3831688
51
270.7823727
0
ARC
8
DEFAULT_255_2_778
10
20.6493396
20
89.2402403
40
15.4416081
50
270.2101292
51
270.4042004
0
ARC
8
DEFAULT_255_2_778
10
20.5676037
20
110.5487015
40
36.7502259
50
270.0988387
51
270.2157229
0
ARC
8
DEFAULT_255_2_778
10
20.5079126
20
142.4032247
40
68.6048047
50
270.0415264
51
270.1027974
0
ARC
8
DEFAULT_255_2_778
10
20.4792531
20
179.5747778
40
105.7763687
50
269.9983965
51
270.0424573
0
ARC
8
DEFAULT_255_2_778
10
20.4801912
20
234.4545371
40
160.6561281
50
269.9581543
51
269.9986097
0
ARC
8
DEFAULT_255_2_778
10
20.5557588
20
333.0719525
40
259.2735723
50
269.9128744
51
269.9573714
0
ARC
8
DEFAULT_255_2_778
10
20.7359672
20
456.1438113
40
382.3455629
50
269.8896474
51
269.9139141
0
ARC
8
DEFAULT_255_2_778
10
20.897905
20
541.4435426
40
467.6454479
50
269.8757243
51
269.8899354
0
ARC
8
DEFAULT_255_2_778
10
21.1424358
20
653.7101117
40
579.9122834
50
269.871981
51
269.8756234
0
ARC
8
DEFAULT_255_2_778
10
21.0586085
20
615.2997577
40
541.501838
50
269.8591614
51
269.8717698
0
ARC
8
DEFAULT_255_2_778
10
21.0950878
20
630.1402083
40
556.3423335
50
269.8500542
51
269.8591614
0
ARC
8
DEFAULT_255_2_778
10
20.9591239
20
578.7015088
40
504.9034543
50
269.8439984
51
269.850207
0
ARC
8
DEFAULT_255_2_778
10
21.1823406
20
658.4936001
40
584.6958575
50
269.8402407
51
269.8434141
0
ARC
8
DEFAULT_255_2_778
10
20.6755515
20
475.0277358
40
401.2292934
50
269.8350827
51
269.8395589
0
ARC
8
DEFAULT_255_2_778
10
21.0885439
20
613.501036
40
539.7032088
50
269.8322635
51
269.8335522
0
ARC
8
DEFAULT_255_2_778
10
19.4455488
20
52.0104141
40
21.7898169
50
89.8343769
51
89.8365742
0
ARC
8
DEFAULT_255_2_778
10
19.3991236
20
73.7944251
40
0.108727
50
359.7279414
51
3.0142513
0
ARC
8
DEFAULT_255_2_778
10
15.8810904
20
73.758078
40
3.6269361
50
0.1873626
51
0.5660396
0
ARC
8
DEFAULT_255_2_778
10
-0.8470738
20
73.6896382
40
20.3552392
50
0.1025282
51
0.226029
0
ARC
8
DEFAULT_255_2_778
10
-32.9272018
20
73.6240576
40
52.4354339
50
0.063908
51
0.1114605
0
ARC
8
DEFAULT_255_2_778
10
-92.0923748
20
73.5585956
40
111.6006431
50
0.0227943
51
0.0636353
0
ARC
8
DEFAULT_255_2_778
10
-193.634672
20
73.5143149
40
213.1429499
50
359.9987868
51
0.0238382
0
ARC
8
DEFAULT_255_2_778
10
-328.3967502
20
73.5130692
40
347.9050282
50
359.9837367
51
359.9994619
0
ARC
8
DEFAULT_255_2_778
10
-531.7681227
20
73.5739507
40
551.2764098
50
359.9658166
51
359.9834088
0
ARC
8
DEFAULT_255_2_778
10
-796.3772112
20
73.725681
40
815.8855418
50
359.9565348
51
359.9662477
0
ARC
8
DEFAULT_255_2_778
10
-963.6208505
20
73.8471241
40
983.1292253
50
359.950158
51
359.9568513
0
ARC
8
DEFAULT_255_2_778
10
-1157.5492517
20
74.0095962
40
1177.0576944
50
359.9497013
51
359.9504611
0
ARC
8
DEFAULT_255_2_778
10
-1137.7523141
20
73.9990354
40
1157.2607551
50
359.9440514
51
359.9493637
0
ARC
8
DEFAULT_255_2_778
10
-1373.5200701
20
74.23325
40
1393.0286277
50
359.940877
51
359.9438873
0
ARC
8
DEFAULT_255_2_778
10
-1024.7261604
20
73.8761075
40
1044.2345351
50
359.9383028
51
359.9407248
0
ARC
8
DEFAULT_255_2_778
10
-707.210725
20
73.5343348
40
726.7189157
50
359.9354024
51
359.9382922
0
ARC
8
DEFAULT_255_2_778
10
-939.6834657
20
73.7991757
40
959.1918073
50
359.9341278
51
359.9352386
0
ARC
8
DEFAULT_255_2_778
10
-36.3930144
20
72.7589009
40
55.9007571
50
359.9293203
51
359.9359454
0
ARC
8
DEFAULT_255_2_778
10
10.7467339
20
75.5065354
40
0.2953652
50
268.7324806
51
270.2040014
0
ARC
8
DEFAULT_255_2_778
10
10.7882581
20
85.6743601
40
10.4632664
50
269.7783758
51
269.9080444
0
ARC
8
DEFAULT_255_2_778
10
10.8624283
20
125.4231372
40
50.2121123
50
269.8962044
51
269.9412538
0
ARC
8
DEFAULT_255_2_778
10
10.9490235
20
203.8178622
40
128.6068851
50
269.9384845
51
269.959127
0
ARC
8
DEFAULT_255_2_778
10
11.0566691
20
351.7687513
40
276.5578135
50
269.9586915
51
269.9744595
0
ARC
8
DEFAULT_255_2_778
10
11.1802647
20
625.5666281
40
550.3557182
50
269.9742986
51
269.98472
0
ARC
8
DEFAULT_255_2_778
10
11.2742171
20
959.0422957
40
883.8313991
50
269.9843947
51
269.9899552
0
ARC
8
DEFAULT_255_2_778
10
11.3612184
20
1463.0577377
40
1387.8468487
50
269.9900113
51
269.9959366
0
ARC
8
DEFAULT_255_2_778
10
11.4180121
20
2225.4600886
40
2150.2492018
50
269.995864
51
270.0000857
0
ARC
8
DEFAULT_255_2_778
10
11.4191974
20
2963.9560122
40
2888.7451253
50
270.0000403
51
270.0030154
0
ARC
8
DEFAULT_255_2_778
10
11.3474821
20
4256.1099173
40
4180.8990324
50
270.0030663
51
270.0054892
0
ARC
8
DEFAULT_255_2_778
10
11.1972466
20
5662.7426528
40
5587.5317759
50
270.0056479
51
270.0087761
0
ARC
8
DEFAULT_255_2_778
10
10.9609857
20
7236.9503416
40
7161.7394824
50
270.0087372
51
270.0112994
0
ARC
8
DEFAULT_255_2_778
10
11.0051354
20
7160.199281
40
7084.9884147
50
270.0110648
51
270.0123548
0
ARC
8
DEFAULT_255_2_778
10
10.643084
20
8945.0611087
40
8869.850279
50
270.0122074
51
270.0131924
0
ARC
8
DEFAULT_255_2_778
10
10.8205016
20
8289.516707
40
8214.305854
50
270.0130077
51
270.0139906
0
ARC
8
DEFAULT_255_2_778
10
10.8047952
20
8479.8585687
40
8404.6477139
50
270.0137808
51
270.0145582
0
ARC
8
DEFAULT_255_2_778
10
9.1226661
20
15040.6160388
40
14965.4053997
50
270.0146161
51
270.0149661
0
ARC
8
DEFAULT_255_2_778
10
10.5486954
20
9573.7452807
40
9498.5344557
50
270.0149778
51
270.0156194
0
ARC
8
DEFAULT_255_2_778
10
10.1141755
20
11162.9030251
40
11087.6922597
50
270.0156261
51
270.0160634
0
ARC
8
DEFAULT_255_2_778
10
7.3364671
20
21161.0561969
40
21085.8458175
50
270.0159945
51
270.0161591
0
ARC
8
DEFAULT_255_2_778
10
11.6495246
20
5789.6462227
40
5714.435238
50
270.016381
51
270.0167349
0
ARC
8
DEFAULT_255_2_778
10
13.0984304
20
844.2314365
40
769.0202397
50
270.0164032
51
270.017753
0
ARC
8
DEFAULT_255_2_778
10
12.6168075
20
2490.0853649
40
2414.8742385
50
270.0170805
51
270.017598
0
ARC
8
DEFAULT_255_2_778
10
13.3270626
20
194.900399
40
119.6891629
50
270.0150583
51
270.0186396
0
ARC
8
DEFAULT_255_2_778
10
14.9618599
20
72.6181079
40
0.2120783
50
19.7993636
51
21.6135287
0
ARC
8
DEFAULT_255_2_778
10
5.8234114
20
69.0893546
40
10.0081584
50
21.1243388
51
21.3114157
0
ARC
8
DEFAULT_255_2_778
10
-37.4977321
20
52.2143914
40
56.49994
50
21.2876186
51
21.3360043
0
ARC
8
DEFAULT_255_2_778
10
-145.9452987
20
9.8562508
40
172.9262548
50
21.3352868
51
21.3666204
0
ARC
8
DEFAULT_255_2_778
10
-363.9229986
20
-75.4110595
40
406.9877677
50
21.3652102
51
21.3805812
0
LINE
8
DEFAULT_255_2_778
10
15.0556377
20
72.9608924
11
15.0554507
21
72.9613702
0
ARC
8
DEFAULT_255_2_778
10
-661.7946377
20
-192.0298702
40
726.8744044
50
21.3806683
51
21.3929469
0
ARC
8
DEFAULT_255_2_778
10
-856.6364381
20
-268.3535701
40
936.1317444
50
21.3925879
51
21.3972949
0
ARC
8
DEFAULT_255_2_778
10
-744.8163275
20
-224.5387431
40
816.0339667
50
21.397354
51
21.4003223
0
ARC
8
DEFAULT_255_2_778
10
90.7268819
20
102.9169864
40
81.3843916
50
201.3996524
51
201.4032745
0
LINE
8
DEFAULT_255_2_778
10
14.9532907
20
73.222171
11
14.9495002
21
73.2318424
0
ARC
8
DEFAULT_255_2_778
10
13.517887
20
72.9615619
40
0.2717049
50
269.7292414
51
271.4368835
0
ARC
8
DEFAULT_255_2_778
10
13.4787768
20
82.4466783
40
9.7568916
50
270.0730211
51
270.2221289
0
ARC
8
DEFAULT_255_2_778
10
13.4178372
20
121.7626297
40
49.0728899
50
270.0320035
51
270.0856694
0
ARC
8
DEFAULT_255_2_778
10
13.3683084
20
197.186171
40
124.4964473
50
270.0125245
51
270.035409
0
ARC
8
DEFAULT_255_2_778
10
13.3394301
20
318.2853014
40
245.5955812
50
269.9996137
51
270.013086
0
ARC
8
DEFAULT_255_2_778
10
13.3407217
20
476.9742697
40
404.2845495
50
269.9876375
51
269.9995823
0
ARC
8
DEFAULT_255_2_778
10
13.3948962
20
731.9191063
40
659.2293917
50
269.9799495
51
269.98771
0
ARC
8
DEFAULT_255_2_778
10
13.5079497
20
1048.6535424
40
975.963848
50
269.9720485
51
269.9798195
0
ARC
8
DEFAULT_255_2_778
10
13.7858658
20
1607.1808753
40
1534.4912499
50
269.9703069
51
269.9718453
0
ARC
8
DEFAULT_255_2_778
10
13.7762312
20
1570.354843
40
1497.6652177
50
269.967104
51
269.9699453
0
ARC
8
DEFAULT_255_2_778
10
13.6585067
20
1360.6605729
40
1287.9709146
50
269.9649336
51
269.9669852
0
ARC
8
DEFAULT_255_2_778
10
13.5288579
20
1143.4208923
40
1070.7311953
50
269.9626615
51
269.9647567
0
ARC
8
DEFAULT_255_2_778
10
13.1150234
20
517.0240223
40
444.3341888
50
269.9607758
51
269.9633867
0
ARC
8
DEFAULT_255_2_778
10
12.6736245
20
-125.9937873
40
198.6837723
50
89.9604313
51
89.9624892
0
ARC
8
DEFAULT_255_2_778
10
13.9533971
20
75.3607174
40
0.1496629
50
267.128735
51
270.5415064
0
ARC
8
DEFAULT_255_2_778
10
13.9962507
20
80.5485925
40
5.3376922
50
269.5551808
51
269.8551485
0
ARC
8
DEFAULT_255_2_778
10
14.0507752
20
97.0925859
40
21.8817742
50
269.8218974
51
269.9049374
0
ARC
8
DEFAULT_255_2_778
10
14.1065243
20
131.1486013
40
55.9378353
50
269.9057109
51
269.9690809
0
ARC
8
DEFAULT_255_2_778
10
14.1480204
20
199.6136555
40
124.402902
50
269.9669855
51
270.001659
0
ARC
8
DEFAULT_255_2_778
10
14.1479881
20
296.1251817
40
220.9144281
50
270.0009426
51
270.0250002
0
ARC
8
DEFAULT_255_2_778
10
14.0876739
20
440.3354927
40
365.1247517
50
270.0245907
51
270.0400112
0
ARC
8
DEFAULT_255_2_778
10
13.98719
20
583.6406063
40
508.4299006
50
270.0400574
51
270.0511315
0
ARC
8
DEFAULT_255_2_778
10
13.8752094
20
707.4678102
40
632.2571551
50
270.0512652
51
270.0596711
0
ARC
8
DEFAULT_255_2_778
10
13.8060916
20
774.6765634
40
699.4659439
50
270.0595992
51
270.0662947
0
ARC
8
DEFAULT_255_2_778
10
13.8093706
20
771.576193
40
696.3655717
50
270.0663201
51
270.0704962
0
ARC
8
DEFAULT_255_2_778
10
13.9287235
20
676.4209519
40
601.210256
50
270.0702794
51
270.074386
0
ARC
8
DEFAULT_255_2_778
10
14.0633869
20
573.1950611
40
497.9842775
50
270.0743116
51
270.0768754
0
ARC
8
DEFAULT_255_2_778
10
14.557187
20
204.8551877
40
129.6440731
50
270.0770577
51
270.0805286
0
ARC
8
DEFAULT_255_2_778
10
19.7865682
20
74.2241699
40
11.0854885
50
180.0840769
51
180.110284
0
ARC
8
DEFAULT_255_2_778
10
250.5488055
20
74.5955943
40
241.8480246
50
180.0868647
51
180.0918473
0
ARC
8
DEFAULT_255_2_778
10
585.837856
20
75.1044927
40
577.1374613
50
180.0830396
51
180.0869218
0
ARC
8
DEFAULT_255_2_778
10
657.1724106
20
75.2090648
40
648.4720924
50
180.077732
51
180.0831444
0
ARC
8
DEFAULT_255_2_778
10
778.247537
20
75.3767128
40
769.5473348
50
180.0733267
51
180.0779842
0
ARC
8
DEFAULT_255_2_778
10
774.9218857
20
75.3727661
40
766.2216813
50
180.0680536
51
180.0733499
0
ARC
8
DEFAULT_255_2_778
10
711.1926274
20
75.2995407
40
702.4923812
50
180.0598348
51
180.068255
0
ARC
8
DEFAULT_255_2_778
10
576.1569598
20
75.1592243
40
567.4566407
50
180.0456571
51
180.0599058
0
ARC
8
DEFAULT_255_2_778
10
410.3789505
20
75.0267726
40
401.6785785
50
180.0278507
51
180.0456073
0
ARC
8
DEFAULT_255_2_778
10
264.7388266
20
74.9569973
40
256.0384379
50
180.0049237
51
180.0280786
0
ARC
8
DEFAULT_255_2_778
10
259.2161529
20
74.9527106
40
250.5157639
50
180.0008322
51
180.0040518
0
ARC
8
DEFAULT_255_2_778
10
141.94009
20
74.9550863
40
133.239701
50
179.9578023
51
180.0025862
0
ARC
8
DEFAULT_255_2_778
10
71.6966951
20
75.0068652
40
62.996287
50
179.8990132
51
179.9578435
0
ARC
8
DEFAULT_255_2_778
10
36.7294273
20
75.0685998
40
28.0289646
50
179.819585
51
179.8992237
0
ARC
8
DEFAULT_255_2_778
10
18.6996506
20
75.1274065
40
9.9990924
50
179.6460695
51
179.8312383
0
ARC
8
DEFAULT_255_2_778
10
10.2003388
20
75.1824588
40
1.4996048
50
179.023405
51
179.7434663
0
ARC
8
DEFAULT_255_2_778
10
8.7262541
20
75.2084738
40
0.0253063
50
173.7189991
51
181.0320833
0
ARC
8
DEFAULT_255_2_778
10
8.7071257
20
74.9965642
40
0.2147648
50
89.69583
51
91.6085127
0
ARC
8
DEFAULT_255_2_778
10
8.7414098
20
67.6108891
40
7.6005092
50
90.0803101
51
90.2498533
0
ARC
8
DEFAULT_255_2_778
10
8.7955241
20
36.5625486
40
38.6488965
50
90.0356206
51
90.0960162
0
ARC
8
DEFAULT_255_2_778
10
8.8499632
20
-43.2816378
40
118.4931015
50
90.0045934
51
90.0379417
0
ARC
8
DEFAULT_255_2_778
10
8.8601799
20
-68.1078183
40
143.3192828
50
89.9973252
51
90.0078821
0
ARC
8
DEFAULT_255_2_778
10
8.8622984
20
-259.7276912
40
334.9391559
50
89.9861178
51
89.9992179
0
ARC
8
DEFAULT_255_2_778
10
8.8087445
20
-472.8517283
40
548.0631997
50
89.9774215
51
89.9859175
0
ARC
8
DEFAULT_255_2_778
10
8.705443
20
-724.0933047
40
799.3047974
50
89.968766
51
89.9771136
0
ARC
8
DEFAULT_255_2_778
10
8.4432737
20
-1200.9728307
40
1276.1843955
50
89.9670347
51
89.968667
0
ARC
8
DEFAULT_255_2_778
10
8.4289233
20
-1207.7550693
40
1282.9666413
50
89.963579
51
89.9665681
0
ARC
8
DEFAULT_255_2_778
10
8.4945235
20
-1100.2816097
40
1175.4931616
50
89.96141
51
89.9634466
0
ARC
8
DEFAULT_255_2_778
10
9.5465784
20
445.6072673
40
370.3960735
50
269.9597296
51
269.9613009
0
ARC
8
DEFAULT_255_2_778
10
9.3175259
20
102.6814866
40
27.4702163
50
269.9559427
51
269.9650141
0
ARC
8
DEFAULT_255_2_778
10
12.7906756
20
5065.0129246
40
4989.8028697
50
269.9599267
51
269.9601506
0
ARC
8
DEFAULT_255_2_778
10
9.4002419
20
187.2924874
40
112.0812541
50
269.9591089
51
269.962237
0
ARC
8
DEFAULT_255_2_778
10
9.5872581
20
434.3150183
40
359.1038555
50
269.9583748
51
269.9604007
0
ARC
8
DEFAULT_255_2_778
10
9.3764175
20
123.9558976
40
48.7446633
50
269.9560978
51
269.9669502
0
ARC
8
DEFAULT_255_2_778
10
8.6954436
20
73.8346321
40
0.0349504
50
268.4251507
51
279.3141647
0
ARC
8
DEFAULT_255_2_778
10
8.6652804
20
74.8332438
40
1.0339616
50
270.72804
51
271.6184463
0
ARC
8
DEFAULT_255_2_778
10
8.6111765
20
78.7203729
40
4.9214667
50
270.3833957
51
270.7828533
0
ARC
8
DEFAULT_255_2_778
10
8.5352417
20
89.2211796
40
15.4225473
50
270.210258
51
270.4044502
0
ARC
8
DEFAULT_255_2_778
10
8.4535566
20
110.5032733
40
36.7047977
50
270.0988984
51
270.2158557
0
ARC
8
DEFAULT_255_2_778
10
8.3938993
20
142.3204753
40
68.5220553
50
270.0415522
51
270.1028597
0
ARC
8
DEFAULT_255_2_778
10
8.3652587
20
179.4451382
40
105.6467291
50
269.9983955
51
270.0424833
0
ARC
8
DEFAULT_255_2_778
10
8.3661961
20
234.2576295
40
160.4592205
50
269.9581286
51
269.9986089
0
ARC
8
DEFAULT_255_2_778
10
8.4417172
20
332.7547035
40
258.9563233
50
269.9128211
51
269.9573454
0
ARC
8
DEFAULT_255_2_778
10
8.6218096
20
455.6726974
40
381.8744491
50
269.8895797
51
269.9138616
0
ARC
8
DEFAULT_255_2_778
10
8.7836894
20
540.8892259
40
467.0911313
50
269.8756487
51
269.8898679
0
ARC
8
DEFAULT_255_2_778
10
9.02726
20
652.6512151
40
578.853386
50
269.871902
51
269.8755488
0
ARC
8
DEFAULT_255_2_778
10
8.9441737
20
614.6012707
40
540.803351
50
269.8590749
51
269.8716919
0
ARC
8
DEFAULT_255_2_778
10
8.9808472
20
629.5117466
40
555.7138719
50
269.849963
51
269.859075
0
ARC
8
DEFAULT_255_2_778
10
8.8450676
20
578.1694898
40
504.3714356
50
269.8439031
51
269.8501144
0
ARC
8
DEFAULT_255_2_778
10
9.0679746
20
657.8033919
40
584.0056494
50
269.840144
51
269.8433192
0
ARC
8
DEFAULT_255_2_778
10
8.5621115
20
474.7740579
40
400.9756164
50
269.8349829
51
269.8394592
0
ARC
8
DEFAULT_255_2_778
10
8.9782097
20
614.2240969
40
540.4262756
50
269.8321628
51
269.833449
0
ARC
8
DEFAULT_255_2_778
10
7.3291177
20
50.9713031
40
22.8289323
50
89.8343094
51
89.8364055
0
LINE
8
DEFAULT_255_2_778
10
19.5077002
20
75.2112424
11
19.5077002
21
74.2028424
0
LINE
8
DEFAULT_255_2_778
10
19.5077002
20
74.2028424
11
20.8153002
21
74.2028424
0
LINE
8
DEFAULT_255_2_778
10
21.4619002
20
75.2112424
11
21.4619002
21
72.6899424
0
LINE
8
DEFAULT_255_2_778
10
21.4619002
20
72.6899424
11
20.8153002
21
72.6899424
0
LINE
8
DEFAULT_255_2_778
10
20.8153002
20
72.6899424
11
20.8153002
21
73.8001424
0
LINE
8
DEFAULT_255_2_778
10
19.5077002
20
72.6899424
11
18.8611002
21
72.6899424
0
LINE
8
DEFAULT_255_2_778
10
18.8611002
20
72.6899424
11
18.8611002
21
75.2112424
0
LINE
8
DEFAULT_255_2_778
10
18.8611002
20
75.2112424
11
19.5077002
21
75.2112424
0
LINE
8
DEFAULT_255_2_778
10
19.5077002
20
75.2112424
11
19.5077002
21
75.2112424
0
LINE
8
DEFAULT_255_2_778
10
13.3660002
20
75.2112424
11
13.3660002
21
74.7831424
0
LINE
8
DEFAULT_255_2_778
10
13.3660002
20
74.7831424
11
12.3761002
21
74.7831424
0
LINE
8
DEFAULT_255_2_778
10
12.3761002
20
74.7831424
11
12.3761002
21
72.6899424
0
LINE
8
DEFAULT_255_2_778
10
12.3761002
20
72.6899424
11
11.7295002
21
72.6899424
0
LINE
8
DEFAULT_255_2_778
10
11.7295002
20
72.6899424
11
11.7295002
21
74.7831424
0
LINE
8
DEFAULT_255_2_778
10
11.7295002
20
74.7831424
11
10.7402002
21
74.7831424
0
LINE
8
DEFAULT_255_2_778
10
10.7402002
20
74.7831424
11
10.7402002
21
75.2112424
0
LINE
8
DEFAULT_255_2_778
10
15.8824002
20
72.6899424
11
15.1614002
21
72.6899424
0
LINE
8
DEFAULT_255_2_778
10
14.9495002
20
73.2318424
11
13.7364002
21
73.2318424
0
LINE
8
DEFAULT_255_2_778
10
13.7364002
20
73.2318424
11
13.5247002
21
72.6899424
0
LINE
8
DEFAULT_255_2_778
10
12.8037002
20
72.6899424
11
13.9459002
21
75.2112424
0
LINE
8
DEFAULT_255_2_778
10
14.7394002
20
75.2112424
11
15.8821002
21
72.6899424
0
LINE
8
DEFAULT_255_2_778
10
15.8821002
20
72.6899424
11
15.8824002
21
72.6899424
0
LINE
8
DEFAULT_255_2_778
10
14.3417002
20
74.7828424
11
13.8922002
21
73.6356424
0
LINE
8
DEFAULT_255_2_778
10
13.8922002
20
73.6356424
11
14.7942002
21
73.6356424
0
LINE
8
DEFAULT_255_2_778
10
14.7942002
20
73.6356424
11
14.3420002
21
74.7828424
0
LINE
8
DEFAULT_255_2_778
10
14.3420002
20
74.7828424
11
14.3417002
21
74.7828424
0
LINE
8
DEFAULT_255_2_778
10
21.9750002
20
75.2112424
11
22.6224002
21
75.2112424
0
LINE
8
DEFAULT_255_2_778
10
22.6224002
20
75.2112424
11
22.6224002
21
72.6899424
0
LINE
8
DEFAULT_255_2_778
10
22.6224002
20
72.6899424
11
21.9750002
21
72.6899424
0
LINE
8
DEFAULT_255_2_778
10
21.9750002
20
72.6899424
11
21.9750002
21
75.2112424
0
LINE
8
DEFAULT_255_2_778
10
21.9750002
20
75.2112424
11
21.9750002
21
75.2112424
0
LINE
8
DEFAULT_255_2_778
10
7.3943002
20
75.2112424
11
7.3943002
21
74.2028424
0
LINE
8
DEFAULT_255_2_778
10
7.3943002
20
74.2028424
11
8.7011002
21
74.2028424
0
LINE
8
DEFAULT_255_2_778
10
9.3483002
20
75.2112424
11
9.3483002
21
72.6899424
0
LINE
8
DEFAULT_255_2_778
10
9.3483002
20
72.6899424
11
8.7011002
21
72.6899424
0
LINE
8
DEFAULT_255_2_778
10
8.7011002
20
72.6899424
11
8.7011002
21
73.8001424
0
LINE
8
DEFAULT_255_2_778
10
7.3943002
20
73.8001424
11
7.3943002
21
72.6899424
0
LINE
8
DEFAULT_255_2_778
10
7.3943002
20
72.6899424
11
6.7474002
21
72.6899424
0
LINE
8
DEFAULT_255_2_778
10
6.7474002
20
72.6899424
11
6.7474002
21
75.2112424
0
LINE
8
DEFAULT_255_2_778
10
6.7474002
20
75.2112424
11
7.3943002
21
75.2112424
0
LINE
8
DEFAULT_255_2_778
10
7.3943002
20
75.2112424
11
7.3943002
21
75.2112424
0
LINE
8
DEFAULT_255_2_778
10
9.8615002
20
75.2112424
11
10.5087002
21
75.2112424
0
LINE
8
DEFAULT_255_2_778
10
10.5087002
20
75.2112424
11
10.5087002
21
72.6899424
0
LINE
8
DEFAULT_255_2_778
10
10.5087002
20
72.6899424
11
9.8615002
21
72.6899424
0
LINE
8
DEFAULT_255_2_778
10
9.8615002
20
72.6899424
11
9.8615002
21
75.2112424
0
LINE
8
DEFAULT_255_2_778
10
9.8615002
20
75.2112424
11
9.8615002
21
75.2112424
0
ARC
8
DEFAULT_255_2_778
10
17.4432498
20
73.919343
40
1.6712029
50
179.7780449
51
198.548653
0
ARC
8
DEFAULT_255_2_778
10
17.3285801
20
73.9658612
40
1.5570357
50
157.2384894
51
181.4737073
0
ARC
8
DEFAULT_255_2_778
10
16.8557993
20
74.1324579
40
1.0570238
50
150.0033041
51
155.6503891
0
ARC
8
DEFAULT_255_2_778
10
16.8912441
20
74.1190902
40
1.0944213
50
111.1896137
51
150.3249309
0
ARC
8
DEFAULT_255_2_778
10
17.211737
20
73.2991045
40
1.9748127
50
90.0023899
51
111.260283
0
LINE
8
DEFAULT_255_2_778
10
17.2116546
20
75.2739172
11
17.2124594
21
75.273917
0
ARC
8
DEFAULT_255_2_778
10
17.2053152
20
73.2720328
40
2.001897
50
65.6894838
51
89.7955268
0
ARC
8
DEFAULT_255_2_778
10
17.6941262
20
74.3560165
40
0.8127984
50
11.194763
51
65.633853
0
ARC
8
DEFAULT_255_2_778
10
17.1873663
20
74.2535758
40
1.3298061
50
5.546653
51
11.2855352
0
ARC
8
DEFAULT_255_2_778
10
16.4257687
20
74.1685107
40
2.096089
50
5.069153
51
5.8488032
0
ARC
8
DEFAULT_255_2_778
10
17.2342589
20
74.3475815
40
0.6000319
50
0.5858781
51
19.5041288
0
ARC
8
DEFAULT_255_2_778
10
17.3510531
20
74.3837505
40
0.4778888
50
20.0917475
51
72.2606938
0
ARC
8
DEFAULT_255_2_778
10
17.217452
20
73.9732329
40
0.9095965
50
72.1240293
51
89.9981804
0
ARC
8
DEFAULT_255_2_778
10
17.217443
20
73.9838837
40
0.8989456
50
89.9975864
51
90.2985155
0
ARC
8
DEFAULT_255_2_778
10
17.2094016
20
73.9677853
40
0.9150378
50
89.7897444
51
110.2588109
0
ARC
8
DEFAULT_255_2_778
10
17.101001
20
74.2741628
40
0.5900947
50
110.6852559
51
162.0403298
0
ARC
8
DEFAULT_255_2_778
10
18.0683819
20
73.923883
40
1.6187234
50
160.8041275
51
179.9386229
0
ARC
8
DEFAULT_255_2_778
10
18.1558236
20
73.9409548
40
1.7062331
50
180.5150557
51
195.5894688
0
ARC
8
DEFAULT_255_2_778
10
17.0879104
20
73.637183
40
0.5959962
50
195.0508469
51
248.0946429
0
ARC
8
DEFAULT_255_2_778
10
17.2161907
20
73.9810499
40
0.962939
50
248.6461851
51
269.7958357
0
ARC
8
DEFAULT_255_2_778
10
17.2162371
20
73.9566504
40
0.9385398
50
269.7876919
51
288.3854007
0
ARC
8
DEFAULT_255_2_778
10
17.3618099
20
73.5114006
40
0.4701081
50
288.6648473
51
337.0664801
0
ARC
8
DEFAULT_255_2_778
10
17.1620914
20
73.5943937
40
0.686381
50
337.1824881
51
0.3525413
0
ARC
8
DEFAULT_255_2_778
10
17.1306441
20
73.6723919
40
1.4016582
50
347.106098
51
356.982897
0
ARC
8
DEFAULT_255_2_778
10
17.714149
20
73.5331536
40
0.8018149
50
294.3589809
51
347.5005795
0
ARC
8
DEFAULT_255_2_778
10
17.2068565
20
74.7263417
40
2.0982328
50
270.1611893
51
293.5397442
0
ARC
8
DEFAULT_255_2_778
10
17.2113432
20
74.1139698
40
1.4858535
50
269.9818014
51
270.0546119
0
ARC
8
DEFAULT_255_2_778
10
17.2109535
20
74.7331674
40
2.1050512
50
251.8970159
51
269.9977614
0
ARC
8
DEFAULT_255_2_778
10
16.8688452
20
73.7634855
40
1.0773317
50
200.3966403
51
253.1665191
0
LINE
8
DEFAULT_255_2_778
10
18.5136594
20
74.353717
11
17.8342594
21
74.353717
0
LINE
8
DEFAULT_255_2_778
10
17.8484594
20
73.598617
11
18.5303594
21
73.598617
0
LINE
8
DEFAULT_255_1_234
10
9.9589364
20
71.2941211
11
10.1581235
21
71.2941211
0
LINE
8
DEFAULT_255_1_234
10
10.1581235
20
71.2941211
11
10.5404342
21
70.3399506
0
LINE
8
DEFAULT_255_1_234
10
10.5404342
20
70.3399506
11
10.922745
21
71.2941211
0
LINE
8
DEFAULT_255_1_234
10
10.922745
20
71.2941211
11
11.1227353
21
71.2941211
0
LINE
8
DEFAULT_255_1_234
10
11.1227353
20
71.2941211
11
11.1227353
21
70.1247
0
LINE
8
DEFAULT_255_1_234
10
11.1227353
20
70.1247
11
10.9685259
21
70.1247
0
LINE
8
DEFAULT_255_1_234
10
10.9685259
20
70.1247
11
10.9685259
21
70.5800996
0
LINE
8
DEFAULT_255_1_234
10
10.9685259
20
70.5800996
11
10.982983
21
71.0716419
0
LINE
8
DEFAULT_255_1_234
10
10.982983
20
71.0716419
11
10.5990659
21
70.1247
0
LINE
8
DEFAULT_255_1_234
10
10.5990659
20
70.1247
11
10.4809994
21
70.1247
0
LINE
8
DEFAULT_255_1_234
10
10.4809994
20
70.1247
11
10.0978854
21
71.0692324
0
LINE
8
DEFAULT_255_1_234
10
10.0978854
20
71.0692324
11
10.1131458
21
70.5800996
0
LINE
8
DEFAULT_255_1_234
10
10.1131458
20
70.5800996
11
10.1131458
21
70.1247
0
LINE
8
DEFAULT_255_1_234
10
10.1131458
20
70.1247
11
9.9589364
21
70.1247
0
LINE
8
DEFAULT_255_1_234
10
9.9589364
20
70.1247
11
9.9589364
21
71.2941211
0
LINE
8
DEFAULT_255_1_234
10
11.5331571
20
70.9937341
11
11.5331571
21
70.1247
0
LINE
8
DEFAULT_255_1_234
10
11.5331571
20
70.1247
11
11.3845699
21
70.1247
0
LINE
8
DEFAULT_255_1_234
10
11.3845699
20
70.1247
11
11.3845699
21
70.9937341
0
LINE
8
DEFAULT_255_1_234
10
11.3845699
20
70.9937341
11
11.5331571
21
70.9937341
0
ARC
8
DEFAULT_255_1_234
10
11.4703848
20
71.2251889
40
0.097867
50
161.415052
51
180.5526306
0
ARC
8
DEFAULT_255_1_234
10
11.4579626
20
71.2286077
40
0.0850062
50
138.1827368
51
160.9307106
0
ARC
8
DEFAULT_255_1_234
10
11.4469572
20
71.2381588
40
0.0704362
50
104.6368899
51
138.0039868
0
ARC
8
DEFAULT_255_1_234
10
11.4576726
20
71.2014963
40
0.1086221
50
92.0600725
51
105.2189128
0
ARC
8
DEFAULT_255_1_234
10
11.4600075
20
71.1672117
40
0.1429728
50
89.9756393
51
92.5012496
0
ARC
8
DEFAULT_255_1_234
10
11.4610094
20
71.1897731
40
0.1204151
50
78.0235316
51
90.4478182
0
ARC
8
DEFAULT_255_1_234
10
11.4702186
20
71.2311295
40
0.0780493
50
55.051506
51
78.3369085
0
ARC
8
DEFAULT_255_1_234
10
11.475246
20
71.2395711
40
0.0682538
50
42.0501187
51
54.4513741
0
ARC
8
DEFAULT_255_1_234
10
11.4617328
20
71.2271798
40
0.0865878
50
1.7497075
51
42.1496013
0
ARC
8
DEFAULT_255_1_234
10
11.436266
20
71.2242738
40
0.1121515
50
359.9852656
51
2.8364544
0
ARC
8
DEFAULT_255_1_234
10
11.4528653
20
71.2233229
40
0.0955566
50
342.1070653
51
0.552888
0
ARC
8
DEFAULT_255_1_234
10
11.467135
20
71.2193904
40
0.0807713
50
316.7107116
51
341.6516965
0
ARC
8
DEFAULT_255_1_234
10
11.4738387
20
71.2133823
40
0.0717724
50
285.4397031
51
316.5324284
0
ARC
8
DEFAULT_255_1_234
10
11.4628304
20
71.2499554
40
0.1099597
50
272.3547054
51
285.8953117
0
ARC
8
DEFAULT_255_1_234
10
11.4601462
20
71.2865048
40
0.1465932
50
269.9695369
51
272.8160237
0
ARC
8
DEFAULT_255_1_234
10
11.4591644
20
71.2645863
40
0.1246779
50
258.8431134
51
270.4153935
0
ARC
8
DEFAULT_255_1_234
10
11.4501686
20
71.2210414
40
0.0802162
50
238.5431189
51
259.1288175
0
ARC
8
DEFAULT_255_1_234
10
11.4433571
20
71.2086856
40
0.0661247
50
222.5062634
51
237.9906969
0
ARC
8
DEFAULT_255_1_234
10
11.4561158
20
71.2202889
40
0.0833707
50
184.1069131
51
222.460413
0
ARC
8
DEFAULT_255_1_234
10
11.4830399
20
71.2241349
40
0.1105176
50
179.9429482
51
185.0960898
0
LINE
8
DEFAULT_255_1_234
10
12.3242833
20
70.3985823
11
12.4648387
21
70.3985823
0
LINE
8
DEFAULT_255_1_234
10
11.7323442
20
70.5511853
11
11.7323442
21
70.5760837
0
LINE
8
DEFAULT_255_1_234
10
12.4648387
20
70.6949534
11
12.3242833
21
70.6949534
0
LINE
8
DEFAULT_255_1_234
10
11.8809313
20
70.5704615
11
11.8809313
21
70.5423504
0
ARC
8
DEFAULT_255_1_234
10
12.1230868
20
70.4439121
40
0.2140268
50
269.0327816
51
309.2224514
0
ARC
8
DEFAULT_255_1_234
10
12.1440623
20
70.4224108
40
0.1841255
50
308.396669
51
329.6984113
0
ARC
8
DEFAULT_255_1_234
10
12.1578478
20
70.411982
40
0.166974
50
330.401383
51
355.3970571
0
ARC
8
DEFAULT_255_1_234
10
12.2035344
20
70.4137082
40
0.2617417
50
329.2357853
51
356.6870514
0
ARC
8
DEFAULT_255_1_234
10
12.1485366
20
70.4427971
40
0.3238945
50
324.8706984
51
329.7905871
0
ARC
8
DEFAULT_255_1_234
10
12.1407084
20
70.4495106
40
0.3341614
50
298.8769168
51
324.7016144
0
ARC
8
DEFAULT_255_1_234
10
12.1075276
20
70.5023917
40
0.3965068
50
296.9023738
51
299.385174
0
ARC
8
DEFAULT_255_1_234
10
12.1204889
20
70.4736422
40
0.365007
50
269.8406811
51
297.1299281
0
ARC
8
DEFAULT_255_1_234
10
12.1151546
20
70.5374407
40
0.4288259
50
253.315473
51
270.5771285
0
ARC
8
DEFAULT_255_1_234
10
12.0904581
20
70.4480739
40
0.3361372
50
221.1002312
51
252.9744583
0
ARC
8
DEFAULT_255_1_234
10
12.1364578
20
70.487559
40
0.3967576
50
194.5394537
51
221.0302238
0
ARC
8
DEFAULT_255_1_234
10
12.3213399
20
70.5390952
40
0.5886672
50
182.0499201
51
194.8773585
0
ARC
8
DEFAULT_255_1_234
10
12.4983597
20
70.550906
40
0.7660157
50
179.9791086
51
182.4591564
0
ARC
8
DEFAULT_255_1_234
10
12.3245642
20
70.5790498
40
0.5922274
50
168.614861
51
180.2869651
0
ARC
8
DEFAULT_255_1_234
10
12.2043786
20
70.6026269
40
0.4697532
50
154.9162259
51
168.5402336
0
ARC
8
DEFAULT_255_1_234
10
12.1122294
20
70.648163
40
0.3669966
50
133.5746694
51
155.2558665
0
ARC
8
DEFAULT_255_1_234
10
12.0959453
20
70.6620467
40
0.3457206
50
122.0165146
51
133.2055214
0
ARC
8
DEFAULT_255_1_234
10
12.0995292
20
70.6532361
40
0.355095
50
97.8731644
51
121.7531281
0
ARC
8
DEFAULT_255_1_234
10
12.1174374
20
70.5475159
40
0.4622833
50
89.8471353
51
98.2769494
0
ARC
8
DEFAULT_255_1_234
10
12.1223127
20
70.6085091
40
0.401305
50
73.3760412
51
90.5199766
0
ARC
8
DEFAULT_255_1_234
10
12.141949
20
70.6807516
40
0.3264695
50
47.7085968
51
73.0509704
0
ARC
8
DEFAULT_255_1_234
10
12.154936
20
70.6920128
40
0.309407
50
3.7443473
51
48.0843753
0
ARC
8
DEFAULT_255_1_234
10
12.056231
20
70.6762614
40
0.4090351
50
2.6192045
51
5.0432185
0
ARC
8
DEFAULT_255_1_234
10
12.1019163
20
70.6802592
40
0.2228519
50
3.780656
51
23.9356886
0
ARC
8
DEFAULT_255_1_234
10
12.1247779
20
70.6883155
40
0.198697
50
24.4869552
51
46.9440088
0
ARC
8
DEFAULT_255_1_234
10
12.124863
20
70.6906484
40
0.1969404
50
46.498716
51
89.3298174
0
ARC
8
DEFAULT_255_1_234
10
12.1186984
20
70.6311723
40
0.2565428
50
88.1083975
51
90.0061569
0
ARC
8
DEFAULT_255_1_234
10
12.1159414
20
70.6365759
40
0.251154
50
89.3773333
51
107.2071161
0
ARC
8
DEFAULT_255_1_234
10
12.1016537
20
70.688319
40
0.1975072
50
107.6883219
51
143.3583002
0
ARC
8
DEFAULT_255_1_234
10
12.158392
20
70.6456873
40
0.2684762
50
143.2846717
51
162.935323
0
ARC
8
DEFAULT_255_1_234
10
12.3089522
20
70.5973652
40
0.4265927
50
162.6650068
51
174.0805419
0
ARC
8
DEFAULT_255_1_234
10
12.5232361
20
70.5724636
40
0.6423078
50
173.8423985
51
180.1785963
0
ARC
8
DEFAULT_255_1_234
10
12.4684461
20
70.5393039
40
0.5875227
50
179.7028978
51
188.2277152
0
ARC
8
DEFAULT_255_1_234
10
12.2582763
20
70.5078247
40
0.3750127
50
188.0629871
51
201.1160002
0
ARC
8
DEFAULT_255_1_234
10
12.1484961
20
70.4659238
40
0.2575093
50
201.2187293
51
216.9761968
0
ARC
8
DEFAULT_255_1_234
10
12.1033524
20
70.4320993
40
0.2010998
50
217.0135981
51
265.2056839
0
ARC
8
DEFAULT_255_1_234
10
12.1189384
20
70.5242695
40
0.2943543
50
263.681807
51
270.104251
0
LINE
8
DEFAULT_255_1_234
10
13.0519588
20
70.9985531
11
13.0519588
21
70.8604072
0
LINE
8
DEFAULT_255_1_234
10
12.780486
20
70.7415375
11
12.780486
21
70.1247
0
LINE
8
DEFAULT_255_1_234
10
12.780486
20
70.1247
11
12.6318989
21
70.1247
0
LINE
8
DEFAULT_255_1_234
10
12.6318989
20
70.1247
11
12.6318989
21
70.9937341
0
LINE
8
DEFAULT_255_1_234
10
12.6318989
20
70.9937341
11
12.7764702
21
70.9937341
0
LINE
8
DEFAULT_255_1_234
10
12.7764702
20
70.9937341
11
12.7788797
21
70.8933374
0
ARC
8
DEFAULT_255_1_234
10
12.9852993
20
70.4544342
40
0.4114092
50
80.6754243
51
86.8932892
0
ARC
8
DEFAULT_255_1_234
10
12.9792528
20
70.35767
40
0.5083596
50
86.8038578
51
90.0431435
0
ARC
8
DEFAULT_255_1_234
10
12.9755509
20
70.6033866
40
0.2626638
50
89.2759698
51
106.6213787
0
ARC
8
DEFAULT_255_1_234
10
12.9551072
20
70.677683
40
0.1856317
50
107.1346045
51
157.6458115
0
ARC
8
DEFAULT_255_1_234
10
13.0242674
20
70.6393311
40
0.2643398
50
155.6586782
51
157.2539184
0
ARC
8
DEFAULT_255_1_234
10
13.0037876
20
70.7562157
40
0.2634121
50
127.8165941
51
148.6302098
0
ARC
8
DEFAULT_255_1_234
10
12.9784345
20
70.7822218
40
0.2273596
50
91.3329982
51
126.7875809
0
ARC
8
DEFAULT_255_1_234
10
12.9860286
20
70.7107195
40
0.299078
50
89.986594
51
92.4688449
0
ARC
8
DEFAULT_255_1_234
10
12.9868681
20
70.7382078
40
0.2715908
50
85.3589899
51
90.1623399
0
ARC
8
DEFAULT_255_1_234
10
12.9953196
20
70.8386164
40
0.1708278
50
78.401942
51
85.4594656
0
ARC
8
DEFAULT_255_1_234
10
13.009808
20
70.9077236
40
0.1002194
50
67.7858312
51
78.5728455
0
ARC
8
DEFAULT_255_1_234
10
13.0205933
20
70.9356887
40
0.0702548
50
63.4835954
51
67.3062642
0
LINE
8
DEFAULT_255_1_234
10
13.1330793
20
70.5568075
11
13.1330793
21
70.5672488
0
LINE
8
DEFAULT_255_1_234
10
13.9242056
20
70.5600202
11
13.9242056
21
70.549579
0
ARC
8
DEFAULT_255_1_234
10
13.6916973
20
70.5704837
40
0.5586273
50
166.3003825
51
180.3317926
0
ARC
8
DEFAULT_255_1_234
10
13.6054132
20
70.5897964
40
0.4702272
50
153.8608245
51
166.0967125
0
ARC
8
DEFAULT_255_1_234
10
13.5388535
20
70.625475
40
0.3947658
50
135.1316692
51
154.253643
0
ARC
8
DEFAULT_255_1_234
10
13.5110094
20
70.6500666
40
0.3576898
50
121.7044358
51
134.776924
0
ARC
8
DEFAULT_255_1_234
10
13.5177088
20
70.6371867
40
0.3721701
50
93.4002104
51
121.5398234
0
ARC
8
DEFAULT_255_1_234
10
13.5272044
20
70.5546228
40
0.4551749
50
89.9706281
51
93.9769836
0
ARC
8
DEFAULT_255_1_234
10
13.5319136
20
70.5936362
40
0.4161854
50
71.3323442
51
90.6161982
0
ARC
8
DEFAULT_255_1_234
10
13.5481832
20
70.6538578
40
0.3539455
50
41.1815071
51
70.707185
0
ARC
8
DEFAULT_255_1_234
10
13.5004232
20
70.6104919
40
0.4184468
50
12.1971897
51
41.3445735
0
ARC
8
DEFAULT_255_1_234
10
13.307824
20
70.5646425
40
0.616399
50
359.5703439
51
12.5804035
0
ARC
8
DEFAULT_255_1_234
10
13.3551315
20
70.5464116
40
0.5690829
50
347.0197749
51
0.3188898
0
ARC
8
DEFAULT_255_1_234
10
13.4509817
20
70.5257808
40
0.4710501
50
334.3504053
51
346.846361
0
ARC
8
DEFAULT_255_1_234
10
13.535524
20
70.4818805
40
0.3758475
50
310.422922
51
334.8045033
0
ARC
8
DEFAULT_255_1_234
10
13.5437066
20
70.4754782
40
0.3656736
50
301.8486886
51
310.097356
0
ARC
8
DEFAULT_255_1_234
10
13.5404792
20
70.4830638
40
0.3738224
50
274.307774
51
301.655379
0
ARC
8
DEFAULT_255_1_234
10
13.5294099
20
70.5708361
40
0.4621997
50
269.9546461
51
274.8588071
0
ARC
8
DEFAULT_255_1_234
10
13.5245033
20
70.5207249
40
0.4121134
50
250.888809
51
270.631312
0
ARC
8
DEFAULT_255_1_234
10
13.5094953
20
70.4648277
40
0.3544073
50
221.1701932
51
250.2227191
0
ARC
8
DEFAULT_255_1_234
10
13.5579107
20
70.5089439
40
0.4198961
50
191.6263638
51
221.3526367
0
ARC
8
DEFAULT_255_1_234
10
13.7467103
20
70.5526329
40
0.6136451
50
179.610213
51
192.0693181
0
ARC
8
DEFAULT_255_1_234
10
13.7890331
20
70.5463633
40
0.5065736
50
179.636298
51
190.6162791
0
ARC
8
DEFAULT_255_1_234
10
13.6247999
20
70.514359
40
0.3392576
50
190.4136628
51
208.7170242
0
ARC
8
DEFAULT_255_1_234
10
13.5737623
20
70.4890366
40
0.2823401
50
209.1867941
51
217.4225593
0
ARC
8
DEFAULT_255_1_234
10
13.5208457
20
70.4424558
40
0.2120636
50
216.1156896
51
265.2575835
0
ARC
8
DEFAULT_255_1_234
10
13.5287606
20
70.4998109
40
0.2698952
50
264.5897417
51
270.0601757
0
ARC
8
DEFAULT_255_1_234
10
13.5320666
20
70.4618185
40
0.2319225
50
269.2532621
51
291.8792492
0
ARC
8
DEFAULT_255_1_234
10
13.5349888
20
70.4440238
40
0.2143562
50
292.9269754
51
323.1776747
0
ARC
8
DEFAULT_255_1_234
10
13.495671
20
70.4788452
40
0.2667346
50
322.2518483
51
323.0930371
0
ARC
8
DEFAULT_255_1_234
10
13.4662369
20
70.496999
40
0.3011886
50
323.6941278
51
343.8493282
0
ARC
8
DEFAULT_255_1_234
10
13.3083912
20
70.545035
40
0.4661719
50
343.5748474
51
355.0079071
0
ARC
8
DEFAULT_255_1_234
10
13.1076157
20
70.5658424
40
0.6680042
50
354.7285225
51
0.1206288
0
ARC
8
DEFAULT_255_1_234
10
13.2844623
20
70.5704751
40
0.4911667
50
359.623636
51
11.2015604
0
ARC
8
DEFAULT_255_1_234
10
13.4378851
20
70.602064
40
0.3345323
50
10.9989411
51
30.8319188
0
ARC
8
DEFAULT_255_1_234
10
13.4774723
20
70.6229297
40
0.2898553
50
31.3008956
51
37.3959224
0
ARC
8
DEFAULT_255_1_234
10
13.5271302
20
70.6648653
40
0.2249582
50
36.5915954
51
62.2442953
0
ARC
8
DEFAULT_255_1_234
10
13.5317755
20
70.6645602
40
0.2231053
50
63.3365542
51
89.7195421
0
ARC
8
DEFAULT_255_1_234
10
13.5274609
20
70.6076884
40
0.2800267
50
88.8936788
51
90.0047485
0
ARC
8
DEFAULT_255_1_234
10
13.5242968
20
70.6649787
40
0.2227586
50
89.1921125
51
114.7099455
0
ARC
8
DEFAULT_255_1_234
10
13.5271732
20
70.6687628
40
0.2205633
50
115.7997161
51
142.2900762
0
ARC
8
DEFAULT_255_1_234
10
13.5710465
20
70.6297658
40
0.2791541
50
141.4658779
51
142.3795754
0
ARC
8
DEFAULT_255_1_234
10
13.5819369
20
70.6254557
40
0.2904292
50
143.0175714
51
163.234115
0
ARC
8
DEFAULT_255_1_234
10
13.7397542
20
70.5755054
40
0.4559523
50
162.9447461
51
174.3732162
0
ARC
8
DEFAULT_255_1_234
10
13.9543356
20
70.5514143
40
0.6718682
50
174.1228657
51
180.1565175
0
LINE
8
DEFAULT_255_1_234
10
15.2020551
20
70.7913343
11
15.2020551
21
70.665236
0
LINE
8
DEFAULT_255_1_234
10
15.2020551
20
70.665236
11
14.6952524
21
70.665236
0
LINE
8
DEFAULT_255_1_234
10
14.6952524
20
70.665236
11
14.6952524
21
70.2507983
0
LINE
8
DEFAULT_255_1_234
10
14.6952524
20
70.2507983
11
15.2839789
21
70.2507983
0
LINE
8
DEFAULT_255_1_234
10
15.2839789
20
70.2507983
11
15.2839789
21
70.1247
0
LINE
8
DEFAULT_255_1_234
10
15.2839789
20
70.1247
11
14.5410431
21
70.1247
0
LINE
8
DEFAULT_255_1_234
10
14.5410431
20
70.1247
11
14.5410431
21
71.2941211
0
LINE
8
DEFAULT_255_1_234
10
14.5410431
20
71.2941211
11
15.2759471
21
71.2941211
0
LINE
8
DEFAULT_255_1_234
10
15.2759471
20
71.2941211
11
15.2759471
21
71.1672196
0
LINE
8
DEFAULT_255_1_234
10
15.2759471
20
71.1672196
11
14.6952524
21
71.1672196
0
LINE
8
DEFAULT_255_1_234
10
14.6952524
20
71.1672196
11
14.6952524
21
70.7913343
0
LINE
8
DEFAULT_255_1_234
10
14.6952524
20
70.7913343
11
15.2020551
21
70.7913343
0
LINE
8
DEFAULT_255_1_234
10
16.3746889
20
71.2941211
11
16.3746889
21
70.1247
0
LINE
8
DEFAULT_255_1_234
10
16.3746889
20
70.1247
11
16.2196764
21
70.1247
0
LINE
8
DEFAULT_255_1_234
10
16.2196764
20
70.1247
11
16.2196764
21
70.665236
0
LINE
8
DEFAULT_255_1_234
10
16.2196764
20
70.665236
11
15.6301468
21
70.665236
0
LINE
8
DEFAULT_255_1_234
10
15.6301468
20
70.665236
11
15.6301468
21
70.1247
0
LINE
8
DEFAULT_255_1_234
10
15.6301468
20
70.1247
11
15.4759374
21
70.1247
0
LINE
8
DEFAULT_255_1_234
10
15.4759374
20
70.1247
11
15.4759374
21
71.2941211
0
LINE
8
DEFAULT_255_1_234
10
15.4759374
20
71.2941211
11
15.6301468
21
71.2941211
0
LINE
8
DEFAULT_255_1_234
10
15.6301468
20
71.2941211
11
15.6301468
21
70.7913343
0
LINE
8
DEFAULT_255_1_234
10
15.6301468
20
70.7913343
11
16.2196764
21
70.7913343
0
LINE
8
DEFAULT_255_1_234
10
16.2196764
20
70.7913343
11
16.2196764
21
71.2941211
0
LINE
8
DEFAULT_255_1_234
10
16.2196764
20
71.2941211
11
16.3746889
21
71.2941211
0
LINE
8
DEFAULT_255_1_234
10
16.703187
20
71.2941211
11
17.035701
21
70.3295093
0
LINE
8
DEFAULT_255_1_234
10
17.035701
20
70.3295093
11
17.3698213
21
71.2941211
0
LINE
8
DEFAULT_255_1_234
10
17.3698213
20
71.2941211
11
17.5384878
21
71.2941211
0
LINE
8
DEFAULT_255_1_234
10
17.5384878
20
71.2941211
11
17.1047739
21
70.1247
0
LINE
8
DEFAULT_255_1_234
10
17.1047739
20
70.1247
11
16.9682344
21
70.1247
0
LINE
8
DEFAULT_255_1_234
10
16.9682344
20
70.1247
11
16.5353237
21
71.2941211
0
LINE
8
DEFAULT_255_1_234
10
16.5353237
20
71.2941211
11
16.703187
21
71.2941211
0
LINE
8
DEFAULT_255_1_234
10
18.0974968
20
71.0933276
11
18.0974968
21
70.7519788
0
LINE
8
DEFAULT_255_1_234
10
18.0974968
20
70.7519788
11
18.4235854
21
70.7519788
0
LINE
8
DEFAULT_255_1_234
10
18.4235854
20
70.7519788
11
18.4235854
21
70.6114233
0
LINE
8
DEFAULT_255_1_234
10
18.4235854
20
70.6114233
11
18.0974968
21
70.6114233
0
LINE
8
DEFAULT_255_1_234
10
18.0974968
20
70.6114233
11
18.0974968
21
70.2419634
0
LINE
8
DEFAULT_255_1_234
10
18.0974968
20
70.2419634
11
17.9481064
21
70.2419634
0
LINE
8
DEFAULT_255_1_234
10
17.9481064
20
70.2419634
11
17.9481064
21
70.6114233
0
LINE
8
DEFAULT_255_1_234
10
17.9481064
20
70.6114233
11
17.6220179
21
70.6114233
0
LINE
8
DEFAULT_255_1_234
10
17.6220179
20
70.6114233
11
17.6220179
21
70.7519788
0
LINE
8
DEFAULT_255_1_234
10
17.6220179
20
70.7519788
11
17.9481064
21
70.7519788
0
LINE
8
DEFAULT_255_1_234
10
17.9481064
20
70.7519788
11
17.9481064
21
71.0933276
0
LINE
8
DEFAULT_255_1_234
10
17.9481064
20
71.0933276
11
18.0974968
21
71.0933276
0
LINE
8
DEFAULT_255_2_778
10
9.3932417
20
52.7843831
11
10.7161417
21
52.7843831
0
LINE
8
DEFAULT_255_2_778
10
10.7161417
20
52.7843831
11
10.7161417
21
39.5551831
0
LINE
8
DEFAULT_255_2_778
10
9.3932834
20
39.5552333
11
12.0390834
21
39.5552333
0
LINE
8
DEFAULT_255_2_778
10
12.0390834
20
39.5552333
11
12.0390834
21
34.2635333
0
LINE
8
DEFAULT_255_2_778
10
12.0390834
20
34.2635333
11
9.3932834
21
34.2635333
0
LINE
8
DEFAULT_255_2_778
10
9.3932834
20
34.2635333
11
9.3932834
21
39.5552333
0
LINE
8
DEFAULT_255_2_778
10
10.187
20
34.7927666
11
10.187
21
39.0260666
0
LINE
8
DEFAULT_255_2_778
10
9.9224167
20
38.232375
11
10.1870167
21
39.026075
0
LINE
8
DEFAULT_255_2_778
10
10.1870167
20
39.026075
11
10.4516167
21
38.232375
0
LINE
8
DEFAULT_255_2_778
10
10.4516167
20
38.232375
11
9.9224167
21
38.232375
0
LINE
8
DEFAULT_255_2_778
10
11.2453
20
39.0260666
11
11.2453
21
34.7927666
0
LINE
8
DEFAULT_255_2_778
10
10.9807167
20
35.586475
11
11.2453167
21
34.792775
0
LINE
8
DEFAULT_255_2_778
10
11.2453167
20
34.792775
11
11.5099167
21
35.586475
0
LINE
8
DEFAULT_255_2_778
10
11.5099167
20
35.586475
11
10.9807167
21
35.586475
0
LINE
8
DEFAULT_255_2_778
10
10.7161335
20
34.2635497
11
10.7161335
21
21.0343497
0
LINE
8
DEFAULT_255_2_778
10
10.7161335
20
21.0343497
11
9.3932335
21
21.0343497
0
LINE
8
DEFAULT_255_2_778
10
19.9765335
20
44.8468497
11
18.6536335
21
44.8468497
0
LINE
8
DEFAULT_255_2_778
10
18.6536335
20
44.8468497
11
18.6536335
21
27.6489497
0
LINE
8
DEFAULT_255_2_778
10
17.3307834
20
27.6489333
11
19.9765834
21
27.6489333
0
LINE
8
DEFAULT_255_2_778
10
19.9765834
20
27.6489333
11
19.9765834
21
22.3572333
0
LINE
8
DEFAULT_255_2_778
10
19.9765834
20
22.3572333
11
17.3307834
21
22.3572333
0
LINE
8
DEFAULT_255_2_778
10
17.3307834
20
22.3572333
11
17.3307834
21
27.6489333
0
LINE
8
DEFAULT_255_2_778
10
18.1245
20
22.8864666
11
18.1245
21
27.1197666
0
LINE
8
DEFAULT_255_2_778
10
17.8599167
20
26.326075
11
18.1245167
21
27.119775
0
LINE
8
DEFAULT_255_2_778
10
18.1245167
20
27.119775
11
18.3891167
21
26.326075
0
LINE
8
DEFAULT_255_2_778
10
18.3891167
20
26.326075
11
17.8599167
21
26.326075
0
LINE
8
DEFAULT_255_2_778
10
19.1828
20
27.1197666
11
19.1828
21
22.8864666
0
LINE
8
DEFAULT_255_2_778
10
18.9182167
20
23.680175
11
19.1828167
21
22.886475
0
LINE
8
DEFAULT_255_2_778
10
19.1828167
20
22.886475
11
19.4474167
21
23.680175
0
LINE
8
DEFAULT_255_2_778
10
19.4474167
20
23.680175
11
18.9182167
21
23.680175
0
LINE
8
DEFAULT_255_2_778
10
18.6536417
20
22.3572581
11
18.6536417
21
5.1593581
0
LINE
8
DEFAULT_255_2_778
10
18.6536417
20
5.1593581
11
19.9765417
21
5.1593581
0
LINE
8
DEFAULT_255_1_234
10
4.9274119
20
68.2616792
11
4.9274119
21
68.1404
0
LINE
8
DEFAULT_255_1_234
10
4.9274119
20
68.1404
11
4.161184
21
68.1404
0
LINE
8
DEFAULT_255_1_234
10
4.161184
20
68.1404
11
4.161184
21
68.2472221
0
LINE
8
DEFAULT_255_1_234
10
4.161184
20
68.2472221
11
4.5659836
21
68.6969995
0
LINE
8
DEFAULT_255_1_234
10
4.2872823
20
68.9652595
11
4.1386952
21
68.9652595
0
LINE
8
DEFAULT_255_1_234
10
4.6535296
20
68.6014218
11
4.3402918
21
68.2616792
0
LINE
8
DEFAULT_255_1_234
10
4.3402918
20
68.2616792
11
4.9274119
21
68.2616792
0
ARC
8
DEFAULT_255_1_234
10
3.216967
20
69.8899527
40
1.8008286
50
318.5132453
51
320.7828378
0
ARC
8
DEFAULT_255_1_234
10
3.7456644
20
69.4596426
40
1.1191493
50
320.7372736
51
323.9737074
0
ARC
8
DEFAULT_255_1_234
10
4.1376501
20
69.1756361
40
0.6350923
50
323.8961724
51
328.6421089
0
ARC
8
DEFAULT_255_1_234
10
4.3423096
20
69.0494031
40
0.3946393
50
328.8299013
51
331.789948
0
ARC
8
DEFAULT_255_1_234
10
4.4420274
20
68.9979509
40
0.2824501
50
331.4255242
51
352.9364833
0
ARC
8
DEFAULT_255_1_234
10
4.4556775
20
68.9948976
40
0.2685315
50
353.2248685
51
0.0169286
0
ARC
8
DEFAULT_255_1_234
10
4.4766652
20
68.997195
40
0.2475536
50
359.4866256
51
15.9339782
0
ARC
8
DEFAULT_255_1_234
10
4.5273637
20
69.0108286
40
0.1950618
50
16.1714718
51
43.5284424
0
ARC
8
DEFAULT_255_1_234
10
4.5350946
20
69.0185573
40
0.184134
50
43.4415429
51
83.1661404
0
ARC
8
DEFAULT_255_1_234
10
4.5216864
20
68.9448771
40
0.258926
50
82.160215
51
90.1505798
0
ARC
8
DEFAULT_255_1_234
10
4.5185291
20
68.8911865
40
0.3126255
50
89.5460705
51
102.5418777
0
ARC
8
DEFAULT_255_1_234
10
4.4942377
20
68.9942665
40
0.2067346
50
102.1739365
51
129.2061916
0
ARC
8
DEFAULT_255_1_234
10
4.4863449
20
69.0067094
40
0.1921118
50
129.7279328
51
135.7542026
0
ARC
8
DEFAULT_255_1_234
10
4.4984977
20
68.9970045
40
0.2075944
50
136.175737
51
166.3674722
0
ARC
8
DEFAULT_255_1_234
10
4.5991896
20
68.9700182
40
0.3118201
50
165.9092917
51
178.8683903
0
ARC
8
DEFAULT_255_1_234
10
4.6856757
20
68.9653179
40
0.3983935
50
178.438168
51
180.0083905
0
ARC
8
DEFAULT_255_1_234
10
4.5455359
20
68.9692231
40
0.4068601
50
163.2878735
51
180.5581814
0
ARC
8
DEFAULT_255_1_234
10
4.4653621
20
68.991284
40
0.3237344
50
133.454115
51
162.9470031
0
ARC
8
DEFAULT_255_1_234
10
4.4832162
20
68.9723
40
0.349795
50
100.7869394
51
133.4384016
0
ARC
8
DEFAULT_255_1_234
10
4.5179934
20
68.8174319
40
0.5084616
50
89.6605301
51
101.3704185
0
ARC
8
DEFAULT_255_1_234
10
4.5246273
20
68.8235496
40
0.502348
50
78.2171172
51
90.4130393
0
ARC
8
DEFAULT_255_1_234
10
4.5601351
20
68.9859637
40
0.3361092
50
55.9268222
51
78.4888551
0
ARC
8
DEFAULT_255_1_234
10
4.5797791
20
69.0198324
40
0.2970617
50
47.9292255
51
55.4054003
0
ARC
8
DEFAULT_255_1_234
10
4.5899352
20
69.0301502
40
0.2825983
50
4.3347696
51
48.0560701
0
ARC
8
DEFAULT_255_1_234
10
4.4803745
20
69.0131601
40
0.393225
50
359.925209
51
5.5967654
0
ARC
8
DEFAULT_255_1_234
10
4.5232637
20
69.0187816
40
0.3503892
50
337.8914096
51
358.9967724
0
ARC
8
DEFAULT_255_1_234
10
4.2519049
20
69.1234706
40
0.6412172
50
326.9135351
51
338.3505194
0
ARC
8
DEFAULT_255_1_234
10
3.8533353
20
69.3789284
40
1.1146189
50
319.6472867
51
327.095818
0
ARC
8
DEFAULT_255_1_234
10
3.4700356
20
69.6951
40
1.6114559
50
317.2586784
51
319.9046139
0
LINE
8
DEFAULT_255_1_234
10
5.7121127
20
69.3098211
11
5.7121127
21
68.533152
0
LINE
8
DEFAULT_255_1_234
10
5.7121127
20
68.533152
11
5.8743538
21
68.533152
0
LINE
8
DEFAULT_255_1_234
10
5.8743538
20
68.533152
11
5.8743538
21
68.4118728
0
LINE
8
DEFAULT_255_1_234
10
5.8743538
20
68.4118728
11
5.7121127
21
68.4118728
0
LINE
8
DEFAULT_255_1_234
10
5.7121127
20
68.4118728
11
5.7121127
21
68.1404
0
LINE
8
DEFAULT_255_1_234
10
5.7121127
20
68.1404
11
5.5627224
21
68.1404
0
LINE
8
DEFAULT_255_1_234
10
5.5627224
20
68.1404
11
5.5627224
21
68.4118728
0
LINE
8
DEFAULT_255_1_234
10
5.5627224
20
68.4118728
11
5.0302181
21
68.4118728
0
LINE
8
DEFAULT_255_1_234
10
5.0302181
20
68.4118728
11
5.0302181
21
68.4994187
0
LINE
8
DEFAULT_255_1_234
10
5.0302181
20
68.4994187
11
5.5538875
21
69.3098211
0
LINE
8
DEFAULT_255_1_234
10
5.5538875
20
69.3098211
11
5.7121127
21
69.3098211
0
LINE
8
DEFAULT_255_1_234
10
5.5450525
20
69.0744912
11
5.1988846
21
68.533152
0
LINE
8
DEFAULT_255_1_234
10
5.1988846
20
68.533152
11
5.5627224
21
68.533152
0
LINE
8
DEFAULT_255_1_234
10
5.5627224
20
68.533152
11
5.5627224
21
69.1066181
0
LINE
8
DEFAULT_255_1_234
10
5.5627224
20
69.1066181
11
5.5450525
21
69.0744912
0
LINE
8
DEFAULT_255_1_234
10
6.101652
20
69.3098211
11
6.434166
21
68.3452093
0
LINE
8
DEFAULT_255_1_234
10
6.434166
20
68.3452093
11
6.7682863
21
69.3098211
0
LINE
8
DEFAULT_255_1_234
10
6.7682863
20
69.3098211
11
6.9369528
21
69.3098211
0
LINE
8
DEFAULT_255_1_234
10
6.9369528
20
69.3098211
11
6.5032389
21
68.1404
0
LINE
8
DEFAULT_255_1_234
10
6.5032389
20
68.1404
11
6.3666994
21
68.1404
0
LINE
8
DEFAULT_255_1_234
10
6.3666994
20
68.1404
11
5.9337887
21
69.3098211
0
LINE
8
DEFAULT_255_1_234
10
5.9337887
20
69.3098211
11
6.101652
21
69.3098211
0
LINE
8
DEFAULT_255_1_234
10
4.811023
20
20.8864663
11
4.9660355
21
20.8864663
0
LINE
8
DEFAULT_255_1_234
10
4.0656777
20
21.0454947
11
4.0656777
21
21.1579391
0
LINE
8
DEFAULT_255_1_234
10
4.9660355
20
21.3089357
11
4.811023
21
21.3089357
0
LINE
8
DEFAULT_255_1_234
10
4.2206902
20
21.1539232
11
4.2206902
21
21.0406757
0
ARC
8
DEFAULT_255_1_234
10
4.4179742
20
20.9461846
40
0.5513052
50
340.1774281
51
353.7814284
0
ARC
8
DEFAULT_255_1_234
10
4.5751095
20
20.8876582
40
0.3836379
50
311.4558989
51
340.4421614
0
ARC
8
DEFAULT_255_1_234
10
4.5717763
20
20.8987528
40
0.3941894
50
282.4333181
51
310.7513653
0
ARC
8
DEFAULT_255_1_234
10
4.5278502
20
21.0802679
40
0.5809175
50
269.9358511
51
282.809604
0
ARC
8
DEFAULT_255_1_234
10
4.5226568
20
21.2260212
40
0.7266847
50
270.0021091
51
270.3581957
0
ARC
8
DEFAULT_255_1_234
10
4.5173985
20
20.9659585
40
0.4666519
50
250.7884749
51
270.6489167
0
ARC
8
DEFAULT_255_1_234
10
4.500582
20
20.9022319
40
0.4009729
50
219.3627325
51
250.0611886
0
ARC
8
DEFAULT_255_1_234
10
4.5835031
20
20.9727042
40
0.5097822
50
193.5479632
51
219.5756669
0
ARC
8
DEFAULT_255_1_234
10
4.8206652
20
21.0342919
40
0.7547848
50
181.1218675
51
193.87563
0
ARC
8
DEFAULT_255_1_234
10
5.0276833
20
21.045358
40
0.9620055
50
179.9918545
51
181.5394234
0
ARC
8
DEFAULT_255_1_234
10
4.8425935
20
21.1616788
40
0.7769248
50
169.5837241
51
180.2757934
0
ARC
8
DEFAULT_255_1_234
10
4.6588873
20
21.1956229
40
0.590109
50
155.0365899
51
169.6003176
0
ARC
8
DEFAULT_255_1_234
10
4.5453337
20
21.2503677
40
0.4640625
50
136.783148
51
155.2472683
0
ARC
8
DEFAULT_255_1_234
10
4.5063814
20
21.2834562
40
0.4130255
50
121.7633186
51
136.428115
0
ARC
8
DEFAULT_255_1_234
10
4.5198776
20
21.2585227
40
0.4413323
50
95.6459699
51
121.5490577
0
ARC
8
DEFAULT_255_1_234
10
4.5356058
20
21.1476949
40
0.55319
50
89.924208
51
96.1377933
0
ARC
8
DEFAULT_255_1_234
10
4.5406491
20
21.1595542
40
0.5413475
50
76.6779277
51
90.4563316
0
ARC
8
DEFAULT_255_1_234
10
4.5800114
20
21.3186114
40
0.3775041
50
47.485847
51
76.9287264
0
ARC
8
DEFAULT_255_1_234
10
4.5653087
20
21.3086159
40
0.3948286
50
16.5424086
51
46.8933463
0
ARC
8
DEFAULT_255_1_234
10
4.4045244
20
21.2557861
40
0.564021
50
5.4072051
51
17.0365086
0
ARC
8
DEFAULT_255_1_234
10
4.2606261
20
21.2326679
40
0.5556559
50
7.8891745
51
15.9239216
0
ARC
8
DEFAULT_255_1_234
10
4.4593274
20
21.2903631
40
0.3487515
50
15.7653144
51
27.9410532
0
ARC
8
DEFAULT_255_1_234
10
4.5697492
20
21.349479
40
0.2235026
50
27.8166557
51
46.4008329
0
ARC
8
DEFAULT_255_1_234
10
4.5747135
20
21.3489082
40
0.2205286
50
47.4371857
51
75.0698205
0
ARC
8
DEFAULT_255_1_234
10
4.5438529
20
21.2414765
40
0.3322915
50
74.7008593
51
87.8124495
0
ARC
8
DEFAULT_255_1_234
10
4.5365217
20
21.1358844
40
0.4380987
50
87.3814673
51
90.0240855
0
ARC
8
DEFAULT_255_1_234
10
4.532676
20
21.2536291
40
0.3203749
50
89.3451631
51
108.5745436
0
ARC
8
DEFAULT_255_1_234
10
4.5189865
20
21.3049908
40
0.2673494
50
109.2998449
51
143.3037509
0
ARC
8
DEFAULT_255_1_234
10
4.5951938
20
21.2463881
40
0.3634757
50
143.0753173
51
163.1916937
0
ARC
8
DEFAULT_255_1_234
10
4.7903666
20
21.1847967
40
0.5681262
50
162.9373603
51
174.6208611
0
ARC
8
DEFAULT_255_1_234
10
5.0529708
20
21.156001
40
0.8322832
50
174.3419979
51
180.1430411
0
ARC
8
DEFAULT_255_1_234
10
4.9598864
20
21.0365698
40
0.7392076
50
179.6817502
51
189.150529
0
ARC
8
DEFAULT_255_1_234
10
4.7098112
20
20.994919
40
0.4856932
50
188.9910863
51
203.5773039
0
ARC
8
DEFAULT_255_1_234
10
4.6018445
20
20.9501211
40
0.3688271
50
203.9077269
51
215.1312379
0
ARC
8
DEFAULT_255_1_234
10
4.5095539
20
20.8785941
40
0.2522457
50
213.9071664
51
263.8849284
0
ARC
8
DEFAULT_255_1_234
10
4.5220868
20
20.9570518
40
0.3316174
50
263.1758525
51
270.1031083
0
ARC
8
DEFAULT_255_1_234
10
4.525296
20
21.0817365
40
0.4563091
50
269.6719807
51
279.0609165
0
ARC
8
DEFAULT_255_1_234
10
4.5519728
20
20.9204907
40
0.2928759
50
278.8750225
51
293.6346586
0
ARC
8
DEFAULT_255_1_234
10
4.5839936
20
20.84529
40
0.2111472
50
293.8553404
51
310.0518804
0
ARC
8
DEFAULT_255_1_234
10
4.584479
20
20.8390516
40
0.2060917
50
311.0646779
51
332.0108348
0
ARC
8
DEFAULT_255_1_234
10
4.4652517
20
20.9047978
40
0.3422352
50
331.6588543
51
343.2878891
0
ARC
8
DEFAULT_255_1_234
10
4.2590032
20
20.9681798
40
0.5580003
50
343.1446044
51
351.010618
0
ARC
8
DEFAULT_255_1_234
10
4.1048678
20
20.9962871
40
0.7146438
50
350.7157277
51
351.1602153
0
LINE
8
DEFAULT_255_1_234
10
5.8712125
20
21.2069327
11
5.8712125
21
21.0141709
0
LINE
8
DEFAULT_255_1_234
10
5.1330957
20
20.9940916
11
5.1330957
21
21.1924755
0
LINE
8
DEFAULT_255_1_234
10
5.7226253
20
20.9740123
11
5.7226253
21
21.2173739
0
LINE
8
DEFAULT_255_1_234
10
5.2816829
20
21.2286184
11
5.2816829
21
20.9908789
0
ARC
8
DEFAULT_255_1_234
10
4.6465014
20
21.0092805
40
1.2247208
50
353.8441951
51
0.2287902
0
ARC
8
DEFAULT_255_1_234
10
5.1104518
20
20.9574806
40
0.7578929
50
344.4934747
51
353.9765454
0
ARC
8
DEFAULT_255_1_234
10
5.4097108
20
20.8723981
40
0.4467846
50
329.2803592
51
344.7472793
0
ARC
8
DEFAULT_255_1_234
10
5.5089933
20
20.8179018
40
0.3336173
50
324.9352394
51
328.6160465
0
ARC
8
DEFAULT_255_1_234
10
5.5467042
20
20.7915427
40
0.2876076
50
280.580143
51
324.9173126
0
ARC
8
DEFAULT_255_1_234
10
5.5065834
20
20.9586099
40
0.4592847
50
269.5977311
51
281.6734359
0
ARC
8
DEFAULT_255_1_234
10
5.499374
20
20.9466173
40
0.4472986
50
256.6228859
51
270.51044
0
ARC
8
DEFAULT_255_1_234
10
5.4591718
20
20.7917877
40
0.2873874
50
215.8618325
51
257.2788573
0
ARC
8
DEFAULT_255_1_234
10
5.5612749
20
20.8602977
40
0.4102928
50
197.9693508
51
215.2623606
0
ARC
8
DEFAULT_255_1_234
10
5.8097865
20
20.9441709
40
0.6725652
50
187.8816417
51
198.2346507
0
ARC
8
DEFAULT_255_1_234
10
6.2056073
20
21.0013079
40
1.0724845
50
180.8976217
51
188.0055519
0
ARC
8
DEFAULT_255_1_234
10
6.4856261
20
21.0116777
40
1.3526448
50
180.7449369
51
181.1510016
0
ARC
8
DEFAULT_255_1_234
10
6.327899
20
21.1973042
40
1.1948131
50
173.7675579
51
180.231553
0
ARC
8
DEFAULT_255_1_234
10
5.8761137
20
21.2483666
40
0.7401564
50
164.3058563
51
173.9002247
0
ARC
8
DEFAULT_255_1_234
10
5.5849206
20
21.3322656
40
0.4371288
50
148.7922025
51
164.568378
0
ARC
8
DEFAULT_255_1_234
10
5.4897658
20
21.3853929
40
0.3282386
50
144.5883898
51
148.1176286
0
ARC
8
DEFAULT_255_1_234
10
5.4554556
20
21.4093315
40
0.2864044
50
101.6440918
51
144.514236
0
ARC
8
DEFAULT_255_1_234
10
5.4979623
20
21.2404069
40
0.4604934
50
89.5284041
51
102.5819763
0
ARC
8
DEFAULT_255_1_234
10
5.505871
20
21.2365018
40
0.464401
50
77.0437873
51
90.5081339
0
ARC
8
DEFAULT_255_1_234
10
5.5460712
20
21.4007615
40
0.2953195
50
48.2778575
51
77.4994676
0
ARC
8
DEFAULT_255_1_234
10
5.5533343
20
21.4136746
40
0.2808655
50
36.3142134
51
47.6305865
0
ARC
8
DEFAULT_255_1_234
10
5.466465
20
21.3551515
40
0.3855453
50
18.2931786
51
35.6769206
0
ARC
8
DEFAULT_255_1_234
10
5.2121409
20
21.2678593
40
0.654423
50
8.024666
51
18.5605216
0
ARC
8
DEFAULT_255_1_234
10
4.7958329
20
21.2063792
40
1.0752407
50
1.1274072
51
8.1718305
0
ARC
8
DEFAULT_255_1_234
10
4.472252
20
21.1936885
40
1.3990231
50
0.5424119
51
1.3863029
0
ARC
8
DEFAULT_255_1_234
10
4.6543898
20
21.2209342
40
1.0682415
50
359.8090433
51
4.9407866
0
ARC
8
DEFAULT_255_1_234
10
5.0753912
20
21.2585113
40
0.6455691
50
4.8362157
51
12.2904523
0
ARC
8
DEFAULT_255_1_234
10
5.3509026
20
21.3198965
40
0.3633074
50
12.0805627
51
23.8173984
0
ARC
8
DEFAULT_255_1_234
10
5.4682732
20
21.3695919
40
0.2358723
50
24.2871213
51
31.3935614
0
ARC
8
DEFAULT_255_1_234
10
5.5207429
20
21.4039233
40
0.1732111
50
30.7407893
51
82.4657128
0
ARC
8
DEFAULT_255_1_234
10
5.5027563
20
21.3155691
40
0.263235
50
81.1060089
51
90.2184952
0
ARC
8
DEFAULT_255_1_234
10
5.4991862
20
21.3413924
40
0.2374236
50
89.3806855
51
105.6762551
0
ARC
8
DEFAULT_255_1_234
10
5.4808493
20
21.4080567
40
0.1682847
50
105.7981136
51
149.7388061
0
ARC
8
DEFAULT_255_1_234
10
5.5872571
20
21.344095
40
0.2924306
50
149.4208916
51
163.6286378
0
ARC
8
DEFAULT_255_1_234
10
5.7963459
20
21.280325
40
0.5110213
50
163.3763315
51
172.1410975
0
ARC
8
DEFAULT_255_1_234
10
6.1264178
20
21.2330518
40
0.8444586
50
172.0259487
51
178.0703232
0
ARC
8
DEFAULT_255_1_234
10
6.4294268
20
21.2186906
40
1.1477868
50
177.8631668
51
179.5044149
0
ARC
8
DEFAULT_255_1_234
10
6.3221672
20
20.9872389
40
1.0404907
50
179.7995573
51
185.2460446
0
ARC
8
DEFAULT_255_1_234
10
5.9178711
20
20.9489513
40
0.6343885
50
185.1411642
51
193.0079639
0
ARC
8
DEFAULT_255_1_234
10
5.6535184
20
20.8864641
40
0.3627568
50
192.7897626
51
205.2507664
0
ARC
8
DEFAULT_255_1_234
10
5.5488731
20
20.8397415
40
0.2481908
50
205.8005384
51
211.2537509
0
ARC
8
DEFAULT_255_1_234
10
5.4965171
20
20.804658
40
0.1852521
50
210.3789793
51
238.4008143
0
ARC
8
DEFAULT_255_1_234
10
5.4945693
20
20.8093376
40
0.1882621
50
239.6520629
51
265.9793761
0
ARC
8
DEFAULT_255_1_234
10
5.5030893
20
20.8765427
40
0.2559272
50
265.1315437
51
270.060332
0
ARC
8
DEFAULT_255_1_234
10
5.5059672
20
20.8441534
40
0.2235528
50
269.3314664
51
287.2178029
0
ARC
8
DEFAULT_255_1_234
10
5.5197524
20
20.7938279
40
0.1714108
50
287.7958004
51
329.080874
0
ARC
8
DEFAULT_255_1_234
10
5.4239981
20
20.853593
40
0.2842745
50
328.6634704
51
343.3325132
0
ARC
8
DEFAULT_255_1_234
10
5.2067001
20
20.9212863
40
0.5118644
50
343.0499468
51
351.9393422
0
ARC
8
DEFAULT_255_1_234
10
4.8600301
20
20.9723949
40
0.8622784
50
351.8069023
51
357.7959224
0
ARC
8
DEFAULT_255_1_234
10
4.5364857
20
20.9891721
40
1.1862365
50
357.5871873
51
359.2677531
0
LINE
8
DEFAULT_255_1_234
10
4.2167378
20
28.9886169
11
4.2167378
21
29.1098962
0
LINE
8
DEFAULT_255_1_234
10
4.2167378
20
29.1098962
11
4.328379
21
29.1098962
0
LINE
8
DEFAULT_255_1_234
10
4.1380268
20
29.3155087
11
3.9894396
21
29.3155087
0
LINE
8
DEFAULT_255_1_234
10
3.9789983
20
28.7613188
11
4.1283887
21
28.7613188
0
LINE
8
DEFAULT_255_1_234
10
4.328379
20
28.9886169
11
4.2167378
21
28.9886169
0
ARC
8
DEFAULT_255_1_234
10
4.3254656
20
29.4491713
40
0.3392876
50
270.4919872
51
281.8951556
0
ARC
8
DEFAULT_255_1_234
10
4.3495918
20
29.3389702
40
0.2264817
50
281.6691735
51
301.2943132
0
ARC
8
DEFAULT_255_1_234
10
4.3666128
20
29.3078304
40
0.1910381
50
301.7833094
51
311.7545298
0
ARC
8
DEFAULT_255_1_234
10
4.3757704
20
29.2976748
40
0.1773635
50
311.7323931
51
354.2802411
0
ARC
8
DEFAULT_255_1_234
10
4.3031329
20
29.3101722
40
0.2509385
50
353.0937916
51
0.1181479
0
ARC
8
DEFAULT_255_1_234
10
4.2570114
20
29.3149386
40
0.2970898
50
359.1805295
51
15.0453146
0
ARC
8
DEFAULT_255_1_234
10
4.3915951
20
29.3541992
40
0.1569564
50
13.9577229
51
77.6713066
0
ARC
8
DEFAULT_255_1_234
10
4.352948
20
29.2156949
40
0.3006298
50
76.1116566
51
90.7026153
0
ARC
8
DEFAULT_255_1_234
10
4.3470318
20
29.2430545
40
0.2732568
50
89.5324876
51
103.531937
0
ARC
8
DEFAULT_255_1_234
10
4.3269762
20
29.3229884
40
0.1908508
50
103.2931773
51
133.5619022
0
ARC
8
DEFAULT_255_1_234
10
4.3225251
20
29.3289375
40
0.1834746
50
133.8349307
51
173.5344437
0
ARC
8
DEFAULT_255_1_234
10
4.3948294
20
29.3161213
40
0.2568033
50
172.5096846
51
180.1366907
0
ARC
8
DEFAULT_255_1_234
10
4.2997188
20
29.3195622
40
0.3103056
50
155.3484492
51
180.7484736
0
ARC
8
DEFAULT_255_1_234
10
4.2948277
20
29.3166846
40
0.3070957
50
131.5744599
51
154.4798489
0
ARC
8
DEFAULT_255_1_234
10
4.3261424
20
29.285031
40
0.3515643
50
96.9875458
51
131.9690667
0
ARC
8
DEFAULT_255_1_234
10
4.3480904
20
29.1604636
40
0.4779224
50
89.8596053
51
97.7825159
0
ARC
8
DEFAULT_255_1_234
10
4.3528967
20
29.1342616
40
0.5041361
50
78.3655447
51
90.4131539
0
ARC
8
DEFAULT_255_1_234
10
4.3886885
20
29.3001887
40
0.3344039
50
56.6229102
51
78.638727
0
ARC
8
DEFAULT_255_1_234
10
4.4101829
20
29.3377805
40
0.2912001
50
47.0253525
51
56.0854072
0
ARC
8
DEFAULT_255_1_234
10
4.4121609
20
29.3417223
40
0.2869704
50
10.9208013
51
46.7778124
0
ARC
8
DEFAULT_255_1_234
10
4.2757675
20
29.3101857
40
0.426899
50
359.6364486
51
11.6087304
0
ARC
8
DEFAULT_255_1_234
10
4.4592519
20
29.3086752
40
0.243409
50
332.3549906
51
359.7179418
0
ARC
8
DEFAULT_255_1_234
10
4.3942121
20
29.3395142
40
0.3153459
50
325.2333722
51
332.8745602
0
ARC
8
DEFAULT_255_1_234
10
4.4094744
20
29.3288828
40
0.2967456
50
292.9802137
51
325.2392345
0
ARC
8
DEFAULT_255_1_234
10
4.3820118
20
29.3822863
40
0.3566604
50
292.5402179
51
293.6924929
0
ARC
8
DEFAULT_255_1_234
10
4.4212714
20
28.7368091
40
0.3307468
50
57.6435486
51
72.8625112
0
ARC
8
DEFAULT_255_1_234
10
4.4567214
20
28.7942549
40
0.2632492
50
36.7248896
51
57.4697979
0
ARC
8
DEFAULT_255_1_234
10
4.4555847
20
28.795522
40
0.2634081
50
8.0545065
51
36.356114
0
ARC
8
DEFAULT_255_1_234
10
4.3693032
20
28.7800174
40
0.3510261
50
359.8320645
51
8.5869982
0
ARC
8
DEFAULT_255_1_234
10
4.3317808
20
28.7752101
40
0.3885653
50
343.9829931
51
0.5571613
0
ARC
8
DEFAULT_255_1_234
10
4.4204005
20
28.7509438
40
0.2966924
50
311.6359546
51
343.7651759
0
ARC
8
DEFAULT_255_1_234
10
4.3825574
20
28.7936102
40
0.3537231
50
279.7829875
51
311.6255694
0
ARC
8
DEFAULT_255_1_234
10
4.3524351
20
28.937328
40
0.5004971
50
269.7286406
51
280.3856417
0
ARC
8
DEFAULT_255_1_234
10
4.3462423
20
28.9331996
40
0.4963778
50
256.6828919
51
270.4412052
0
ARC
8
DEFAULT_255_1_234
10
4.3123719
20
28.7947394
40
0.3538406
50
229.4223008
51
256.8556159
0
ARC
8
DEFAULT_255_1_234
10
4.2709112
20
28.7480736
40
0.2914296
50
181.818294
51
229.6455059
0
ARC
8
DEFAULT_255_1_234
10
4.3749068
20
28.7611496
40
0.3959084
50
179.9755256
51
183.2323064
0
ARC
8
DEFAULT_255_1_234
10
4.3576814
20
28.7591037
40
0.2293034
50
179.4465117
51
196.2869258
0
ARC
8
DEFAULT_255_1_234
10
4.3089222
20
28.7457651
40
0.1787621
50
196.5661473
51
227.705904
0
ARC
8
DEFAULT_255_1_234
10
4.3253317
20
28.7641155
40
0.2033784
50
227.7652068
51
257.8762805
0
ARC
8
DEFAULT_255_1_234
10
4.3478287
20
28.8584156
40
0.3003081
50
257.4584385
51
270.426602
0
ARC
8
DEFAULT_255_1_234
10
4.3523853
20
28.8873996
40
0.329292
50
269.5962073
51
280.8789248
0
ARC
8
DEFAULT_255_1_234
10
4.3753382
20
28.7727685
40
0.2123908
50
280.6346389
51
299.8595945
0
ARC
8
DEFAULT_255_1_234
10
4.3944289
20
28.7365212
40
0.171457
50
300.3576302
51
314.5517981
0
ARC
8
DEFAULT_255_1_234
10
4.3861349
20
28.7425919
40
0.1816095
50
315.0728369
51
345.0431014
0
ARC
8
DEFAULT_255_1_234
10
4.2938163
20
28.7694841
40
0.2777492
50
344.5986631
51
357.9269593
0
ARC
8
DEFAULT_255_1_234
10
4.2042489
20
28.7756276
40
0.3674917
50
357.4748886
51
0.0231117
0
ARC
8
DEFAULT_255_1_234
10
4.3065599
20
28.7780679
40
0.2651907
50
359.5047933
51
13.4239635
0
ARC
8
DEFAULT_255_1_234
10
4.3932242
20
28.8002478
40
0.1757509
50
12.9498199
51
48.7551375
0
ARC
8
DEFAULT_255_1_234
10
4.3749976
20
28.77534
40
0.2065134
50
49.5088623
51
72.1836453
0
ARC
8
DEFAULT_255_1_234
10
4.3392129
20
28.6691291
40
0.3185836
50
71.9010081
51
84.3554254
0
ARC
8
DEFAULT_255_1_234
10
4.3230761
20
28.5330326
40
0.4556151
50
84.0193428
51
89.333121
0
LINE
8
DEFAULT_255_1_234
10
4.7669119
20
36.5116792
11
4.7669119
21
36.3904
0
LINE
8
DEFAULT_255_1_234
10
4.7669119
20
36.3904
11
4.000684
21
36.3904
0
LINE
8
DEFAULT_255_1_234
10
4.000684
20
36.3904
11
4.000684
21
36.4972221
0
LINE
8
DEFAULT_255_1_234
10
4.000684
20
36.4972221
11
4.4054836
21
36.9469995
0
LINE
8
DEFAULT_255_1_234
10
4.1267823
20
37.2152595
11
3.9781952
21
37.2152595
0
LINE
8
DEFAULT_255_1_234
10
4.4930296
20
36.8514218
11
4.1797918
21
36.5116792
0
LINE
8
DEFAULT_255_1_234
10
4.1797918
20
36.5116792
11
4.7669119
21
36.5116792
0
ARC
8
DEFAULT_255_1_234
10
3.056467
20
38.1399527
40
1.8008286
50
318.5132453
51
320.7828378
0
ARC
8
DEFAULT_255_1_234
10
3.5851644
20
37.7096426
40
1.1191493
50
320.7372736
51
323.9737074
0
ARC
8
DEFAULT_255_1_234
10
3.9771501
20
37.4256361
40
0.6350923
50
323.8961724
51
328.6421089
0
ARC
8
DEFAULT_255_1_234
10
4.1818096
20
37.2994031
40
0.3946393
50
328.8299013
51
331.789948
0
ARC
8
DEFAULT_255_1_234
10
4.2815274
20
37.2479509
40
0.2824501
50
331.4255242
51
352.9364833
0
ARC
8
DEFAULT_255_1_234
10
4.2951775
20
37.2448976
40
0.2685315
50
353.2248685
51
0.0169286
0
ARC
8
DEFAULT_255_1_234
10
4.3161652
20
37.247195
40
0.2475536
50
359.4866256
51
15.9339782
0
ARC
8
DEFAULT_255_1_234
10
4.3668637
20
37.2608286
40
0.1950618
50
16.1714718
51
43.5284424
0
ARC
8
DEFAULT_255_1_234
10
4.3745946
20
37.2685573
40
0.184134
50
43.4415429
51
83.1661404
0
ARC
8
DEFAULT_255_1_234
10
4.3611864
20
37.1948771
40
0.258926
50
82.160215
51
90.1505798
0
ARC
8
DEFAULT_255_1_234
10
4.3580291
20
37.1411865
40
0.3126255
50
89.5460705
51
102.5418777
0
ARC
8
DEFAULT_255_1_234
10
4.3337377
20
37.2442665
40
0.2067346
50
102.1739365
51
129.2061916
0
ARC
8
DEFAULT_255_1_234
10
4.3258449
20
37.2567094
40
0.1921118
50
129.7279328
51
135.7542026
0
ARC
8
DEFAULT_255_1_234
10
4.3379977
20
37.2470045
40
0.2075944
50
136.175737
51
166.3674722
0
ARC
8
DEFAULT_255_1_234
10
4.4386896
20
37.2200182
40
0.3118201
50
165.9092917
51
178.8683903
0
ARC
8
DEFAULT_255_1_234
10
4.5251757
20
37.2153179
40
0.3983935
50
178.438168
51
180.0083905
0
ARC
8
DEFAULT_255_1_234
10
4.3850359
20
37.2192231
40
0.4068601
50
163.2878735
51
180.5581814
0
ARC
8
DEFAULT_255_1_234
10
4.3048621
20
37.241284
40
0.3237344
50
133.454115
51
162.9470031
0
ARC
8
DEFAULT_255_1_234
10
4.3227162
20
37.2223
40
0.349795
50
100.7869394
51
133.4384016
0
ARC
8
DEFAULT_255_1_234
10
4.3574934
20
37.0674319
40
0.5084616
50
89.6605301
51
101.3704185
0
ARC
8
DEFAULT_255_1_234
10
4.3641273
20
37.0735496
40
0.502348
50
78.2171172
51
90.4130393
0
ARC
8
DEFAULT_255_1_234
10
4.3996351
20
37.2359637
40
0.3361092
50
55.9268222
51
78.4888551
0
ARC
8
DEFAULT_255_1_234
10
4.4192791
20
37.2698324
40
0.2970617
50
47.9292255
51
55.4054003
0
ARC
8
DEFAULT_255_1_234
10
4.4294352
20
37.2801502
40
0.2825983
50
4.3347696
51
48.0560701
0
ARC
8
DEFAULT_255_1_234
10
4.3198745
20
37.2631601
40
0.393225
50
359.925209
51
5.5967654
0
ARC
8
DEFAULT_255_1_234
10
4.3627637
20
37.2687816
40
0.3503892
50
337.8914096
51
358.9967724
0
ARC
8
DEFAULT_255_1_234
10
4.0914049
20
37.3734706
40
0.6412172
50
326.9135351
51
338.3505194
0
ARC
8
DEFAULT_255_1_234
10
3.6928353
20
37.6289284
40
1.1146189
50
319.6472867
51
327.095818
0
ARC
8
DEFAULT_255_1_234
10
3.3095356
20
37.9451
40
1.6114559
50
317.2586784
51
319.9046139
0
LINE
8
DEFAULT_255_1_234
10
4.4807137
20
45.5029433
11
4.4807137
21
44.3279
0
LINE
8
DEFAULT_255_1_234
10
4.4807137
20
44.3279
11
4.3313234
21
44.3279
0
LINE
8
DEFAULT_255_1_234
10
4.3313234
20
44.3279
11
4.3313234
21
45.3182133
0
LINE
8
DEFAULT_255_1_234
10
4.3313234
20
45.3182133
11
4.0317396
21
45.2081785
0
LINE
8
DEFAULT_255_1_234
10
4.0317396
20
45.2081785
11
4.0317396
21
45.3431117
0
LINE
8
DEFAULT_255_1_234
10
4.0317396
20
45.3431117
11
4.4574217
21
45.5029433
0
LINE
8
DEFAULT_255_1_234
10
4.4574217
20
45.5029433
11
4.4807137
21
45.5029433
0
LINE
8
DEFAULT_255_1_234
10
4.7339817
20
52.9569327
11
4.7339817
21
52.7641709
0
LINE
8
DEFAULT_255_1_234
10
3.995865
20
52.7440916
11
3.995865
21
52.9424755
0
LINE
8
DEFAULT_255_1_234
10
4.5853946
20
52.7240123
11
4.5853946
21
52.9673739
0
LINE
8
DEFAULT_255_1_234
10
4.1444521
20
52.9786184
11
4.1444521
21
52.7408789
0
ARC
8
DEFAULT_255_1_234
10
3.5092707
20
52.7592805
40
1.2247208
50
353.8441951
51
0.2287902
0
ARC
8
DEFAULT_255_1_234
10
3.9732211
20
52.7074806
40
0.7578929
50
344.4934747
51
353.9765454
0
ARC
8
DEFAULT_255_1_234
10
4.2724801
20
52.6223981
40
0.4467846
50
329.2803592
51
344.7472793
0
ARC
8
DEFAULT_255_1_234
10
4.3717626
20
52.5679018
40
0.3336173
50
324.9352394
51
328.6160465
0
ARC
8
DEFAULT_255_1_234
10
4.4094734
20
52.5415427
40
0.2876076
50
280.580143
51
324.9173126
0
ARC
8
DEFAULT_255_1_234
10
4.3693527
20
52.7086099
40
0.4592847
50
269.5977311
51
281.6734359
0
ARC
8
DEFAULT_255_1_234
10
4.3621433
20
52.6966173
40
0.4472986
50
256.6228859
51
270.51044
0
ARC
8
DEFAULT_255_1_234
10
4.321941
20
52.5417877
40
0.2873874
50
215.8618325
51
257.2788573
0
ARC
8
DEFAULT_255_1_234
10
4.4240442
20
52.6102977
40
0.4102928
50
197.9693508
51
215.2623606
0
ARC
8
DEFAULT_255_1_234
10
4.6725558
20
52.6941709
40
0.6725652
50
187.8816417
51
198.2346507
0
ARC
8
DEFAULT_255_1_234
10
5.0683766
20
52.7513079
40
1.0724845
50
180.8976217
51
188.0055519
0
ARC
8
DEFAULT_255_1_234
10
5.3483954
20
52.7616777
40
1.3526448
50
180.7449369
51
181.1510016
0
ARC
8
DEFAULT_255_1_234
10
5.1906683
20
52.9473042
40
1.1948131
50
173.7675579
51
180.231553
0
ARC
8
DEFAULT_255_1_234
10
4.738883
20
52.9983666
40
0.7401564
50
164.3058563
51
173.9002247
0
ARC
8
DEFAULT_255_1_234
10
4.4476899
20
53.0822656
40
0.4371288
50
148.7922025
51
164.568378
0
ARC
8
DEFAULT_255_1_234
10
4.3525351
20
53.1353929
40
0.3282386
50
144.5883898
51
148.1176286
0
ARC
8
DEFAULT_255_1_234
10
4.3182249
20
53.1593315
40
0.2864044
50
101.6440918
51
144.514236
0
ARC
8
DEFAULT_255_1_234
10
4.3607315
20
52.9904069
40
0.4604934
50
89.5284041
51
102.5819763
0
ARC
8
DEFAULT_255_1_234
10
4.3686403
20
52.9865018
40
0.464401
50
77.0437873
51
90.5081339
0
ARC
8
DEFAULT_255_1_234
10
4.4088405
20
53.1507615
40
0.2953195
50
48.2778575
51
77.4994676
0
ARC
8
DEFAULT_255_1_234
10
4.4161036
20
53.1636746
40
0.2808655
50
36.3142134
51
47.6305865
0
ARC
8
DEFAULT_255_1_234
10
4.3292343
20
53.1051515
40
0.3855453
50
18.2931786
51
35.6769206
0
ARC
8
DEFAULT_255_1_234
10
4.0749102
20
53.0178593
40
0.654423
50
8.024666
51
18.5605216
0
ARC
8
DEFAULT_255_1_234
10
3.6586022
20
52.9563792
40
1.0752407
50
1.1274072
51
8.1718305
0
ARC
8
DEFAULT_255_1_234
10
3.3350213
20
52.9436885
40
1.3990231
50
0.5424119
51
1.3863029
0
ARC
8
DEFAULT_255_1_234
10
3.517159
20
52.9709342
40
1.0682415
50
359.8090433
51
4.9407866
0
ARC
8
DEFAULT_255_1_234
10
3.9381604
20
53.0085113
40
0.6455691
50
4.8362157
51
12.2904523
0
ARC
8
DEFAULT_255_1_234
10
4.2136719
20
53.0698965
40
0.3633074
50
12.0805627
51
23.8173984
0
ARC
8
DEFAULT_255_1_234
10
4.3310425
20
53.1195919
40
0.2358723
50
24.2871213
51
31.3935614
0
ARC
8
DEFAULT_255_1_234
10
4.3835122
20
53.1539233
40
0.1732111
50
30.7407893
51
82.4657128
0
ARC
8
DEFAULT_255_1_234
10
4.3655256
20
53.0655691
40
0.263235
50
81.1060089
51
90.2184952
0
ARC
8
DEFAULT_255_1_234
10
4.3619555
20
53.0913924
40
0.2374236
50
89.3806855
51
105.6762551
0
ARC
8
DEFAULT_255_1_234
10
4.3436186
20
53.1580567
40
0.1682847
50
105.7981136
51
149.7388061
0
ARC
8
DEFAULT_255_1_234
10
4.4500264
20
53.094095
40
0.2924306
50
149.4208916
51
163.6286378
0
ARC
8
DEFAULT_255_1_234
10
4.6591152
20
53.030325
40
0.5110213
50
163.3763315
51
172.1410975
0
ARC
8
DEFAULT_255_1_234
10
4.9891871
20
52.9830518
40
0.8444586
50
172.0259487
51
178.0703232
0
ARC
8
DEFAULT_255_1_234
10
5.292196
20
52.9686906
40
1.1477868
50
177.8631668
51
179.5044149
0
ARC
8
DEFAULT_255_1_234
10
5.1849365
20
52.7372389
40
1.0404907
50
179.7995573
51
185.2460446
0
ARC
8
DEFAULT_255_1_234
10
4.7806404
20
52.6989513
40
0.6343885
50
185.1411642
51
193.0079639
0
ARC
8
DEFAULT_255_1_234
10
4.5162877
20
52.6364641
40
0.3627568
50
192.7897626
51
205.2507664
0
ARC
8
DEFAULT_255_1_234
10
4.4116424
20
52.5897415
40
0.2481908
50
205.8005384
51
211.2537509
0
ARC
8
DEFAULT_255_1_234
10
4.3592864
20
52.554658
40
0.1852521
50
210.3789793
51
238.4008143
0
ARC
8
DEFAULT_255_1_234
10
4.3573386
20
52.5593376
40
0.1882621
50
239.6520629
51
265.9793761
0
ARC
8
DEFAULT_255_1_234
10
4.3658586
20
52.6265427
40
0.2559272
50
265.1315437
51
270.060332
0
ARC
8
DEFAULT_255_1_234
10
4.3687365
20
52.5941534
40
0.2235528
50
269.3314664
51
287.2178029
0
ARC
8
DEFAULT_255_1_234
10
4.3825217
20
52.5438279
40
0.1714108
50
287.7958004
51
329.080874
0
ARC
8
DEFAULT_255_1_234
10
4.2867674
20
52.603593
40
0.2842745
50
328.6634704
51
343.3325132
0
ARC
8
DEFAULT_255_1_234
10
4.0694694
20
52.6712863
40
0.5118644
50
343.0499468
51
351.9393422
0
ARC
8
DEFAULT_255_1_234
10
3.7227994
20
52.7223949
40
0.8622784
50
351.8069023
51
357.7959224
0
ARC
8
DEFAULT_255_1_234
10
3.399255
20
52.7391721
40
1.1862365
50
357.5871873
51
359.2677531
0
LINE
8
DEFAULT_255_1_234
10
4.9274119
20
60.3241792
11
4.9274119
21
60.2029
0
LINE
8
DEFAULT_255_1_234
10
4.9274119
20
60.2029
11
4.161184
21
60.2029
0
LINE
8
DEFAULT_255_1_234
10
4.161184
20
60.2029
11
4.161184
21
60.3097221
0
LINE
8
DEFAULT_255_1_234
10
4.161184
20
60.3097221
11
4.5659836
21
60.7594995
0
LINE
8
DEFAULT_255_1_234
10
4.2872823
20
61.0277595
11
4.1386952
21
61.0277595
0
LINE
8
DEFAULT_255_1_234
10
4.6535296
20
60.6639218
11
4.3402918
21
60.3241792
0
LINE
8
DEFAULT_255_1_234
10
4.3402918
20
60.3241792
11
4.9274119
21
60.3241792
0
ARC
8
DEFAULT_255_1_234
10
3.216967
20
61.9524527
40
1.8008286
50
318.5132453
51
320.7828378
0
ARC
8
DEFAULT_255_1_234
10
3.7456644
20
61.5221426
40
1.1191493
50
320.7372736
51
323.9737074
0
ARC
8
DEFAULT_255_1_234
10
4.1376501
20
61.2381361
40
0.6350923
50
323.8961724
51
328.6421089
0
ARC
8
DEFAULT_255_1_234
10
4.3423096
20
61.1119031
40
0.3946393
50
328.8299013
51
331.789948
0
ARC
8
DEFAULT_255_1_234
10
4.4420274
20
61.0604509
40
0.2824501
50
331.4255242
51
352.9364833
0
ARC
8
DEFAULT_255_1_234
10
4.4556775
20
61.0573976
40
0.2685315
50
353.2248685
51
0.0169286
0
ARC
8
DEFAULT_255_1_234
10
4.4766652
20
61.059695
40
0.2475536
50
359.4866256
51
15.9339782
0
ARC
8
DEFAULT_255_1_234
10
4.5273637
20
61.0733286
40
0.1950618
50
16.1714718
51
43.5284424
0
ARC
8
DEFAULT_255_1_234
10
4.5350946
20
61.0810573
40
0.184134
50
43.4415429
51
83.1661404
0
ARC
8
DEFAULT_255_1_234
10
4.5216864
20
61.0073771
40
0.258926
50
82.160215
51
90.1505798
0
ARC
8
DEFAULT_255_1_234
10
4.5185291
20
60.9536865
40
0.3126255
50
89.5460705
51
102.5418777
0
ARC
8
DEFAULT_255_1_234
10
4.4942377
20
61.0567665
40
0.2067346
50
102.1739365
51
129.2061916
0
ARC
8
DEFAULT_255_1_234
10
4.4863449
20
61.0692094
40
0.1921118
50
129.7279328
51
135.7542026
0
ARC
8
DEFAULT_255_1_234
10
4.4984977
20
61.0595045
40
0.2075944
50
136.175737
51
166.3674722
0
ARC
8
DEFAULT_255_1_234
10
4.5991896
20
61.0325182
40
0.3118201
50
165.9092917
51
178.8683903
0
ARC
8
DEFAULT_255_1_234
10
4.6856757
20
61.0278179
40
0.3983935
50
178.438168
51
180.0083905
0
ARC
8
DEFAULT_255_1_234
10
4.5455359
20
61.0317231
40
0.4068601
50
163.2878735
51
180.5581814
0
ARC
8
DEFAULT_255_1_234
10
4.4653621
20
61.053784
40
0.3237344
50
133.454115
51
162.9470031
0
ARC
8
DEFAULT_255_1_234
10
4.4832162
20
61.0348
40
0.349795
50
100.7869394
51
133.4384016
0
ARC
8
DEFAULT_255_1_234
10
4.5179934
20
60.8799319
40
0.5084616
50
89.6605301
51
101.3704185
0
ARC
8
DEFAULT_255_1_234
10
4.5246273
20
60.8860496
40
0.502348
50
78.2171172
51
90.4130393
0
ARC
8
DEFAULT_255_1_234
10
4.5601351
20
61.0484637
40
0.3361092
50
55.9268222
51
78.4888551
0
ARC
8
DEFAULT_255_1_234
10
4.5797791
20
61.0823324
40
0.2970617
50
47.9292255
51
55.4054003
0
ARC
8
DEFAULT_255_1_234
10
4.5899352
20
61.0926502
40
0.2825983
50
4.3347696
51
48.0560701
0
ARC
8
DEFAULT_255_1_234
10
4.4803745
20
61.0756601
40
0.393225
50
359.925209
51
5.5967654
0
ARC
8
DEFAULT_255_1_234
10
4.5232637
20
61.0812816
40
0.3503892
50
337.8914096
51
358.9967724
0
ARC
8
DEFAULT_255_1_234
10
4.2519049
20
61.1859706
40
0.6412172
50
326.9135351
51
338.3505194
0
ARC
8
DEFAULT_255_1_234
10
3.8533353
20
61.4414284
40
1.1146189
50
319.6472867
51
327.095818
0
ARC
8
DEFAULT_255_1_234
10
3.4700356
20
61.7576
40
1.6114559
50
317.2586784
51
319.9046139
0
LINE
8
DEFAULT_255_1_234
10
5.7121127
20
61.3723211
11
5.7121127
21
60.595652
0
LINE
8
DEFAULT_255_1_234
10
5.7121127
20
60.595652
11
5.8743538
21
60.595652
0
LINE
8
DEFAULT_255_1_234
10
5.8743538
20
60.595652
11
5.8743538
21
60.4743728
0
LINE
8
DEFAULT_255_1_234
10
5.8743538
20
60.4743728
11
5.7121127
21
60.4743728
0
LINE
8
DEFAULT_255_1_234
10
5.7121127
20
60.4743728
11
5.7121127
21
60.2029
0
LINE
8
DEFAULT_255_1_234
10
5.7121127
20
60.2029
11
5.5627224
21
60.2029
0
LINE
8
DEFAULT_255_1_234
10
5.5627224
20
60.2029
11
5.5627224
21
60.4743728
0
LINE
8
DEFAULT_255_1_234
10
5.5627224
20
60.4743728
11
5.0302181
21
60.4743728
0
LINE
8
DEFAULT_255_1_234
10
5.0302181
20
60.4743728
11
5.0302181
21
60.5619187
0
LINE
8
DEFAULT_255_1_234
10
5.0302181
20
60.5619187
11
5.5538875
21
61.3723211
0
LINE
8
DEFAULT_255_1_234
10
5.5538875
20
61.3723211
11
5.7121127
21
61.3723211
0
LINE
8
DEFAULT_255_1_234
10
5.5450525
20
61.1369912
11
5.1988846
21
60.595652
0
LINE
8
DEFAULT_255_1_234
10
5.1988846
20
60.595652
11
5.5627224
21
60.595652
0
LINE
8
DEFAULT_255_1_234
10
5.5627224
20
60.595652
11
5.5627224
21
61.1691181
0
LINE
8
DEFAULT_255_1_234
10
5.5627224
20
61.1691181
11
5.5450525
21
61.1369912
0
LINE
8
DEFAULT_255_1_234
10
6.101652
20
61.3723211
11
6.434166
21
60.4077093
0
LINE
8
DEFAULT_255_1_234
10
6.434166
20
60.4077093
11
6.7682863
21
61.3723211
0
LINE
8
DEFAULT_255_1_234
10
6.7682863
20
61.3723211
11
6.9369528
21
61.3723211
0
LINE
8
DEFAULT_255_1_234
10
6.9369528
20
61.3723211
11
6.5032389
21
60.2029
0
LINE
8
DEFAULT_255_1_234
10
6.5032389
20
60.2029
11
6.3666994
21
60.2029
0
LINE
8
DEFAULT_255_1_234
10
6.3666994
20
60.2029
11
5.9337887
21
61.3723211
0
LINE
8
DEFAULT_255_1_234
10
5.9337887
20
61.3723211
11
6.101652
21
61.3723211
0
LINE
8
DEFAULT_255_1_234
10
23.1656817
20
68.8319327
11
23.1656817
21
68.6391709
0
LINE
8
DEFAULT_255_1_234
10
22.427565
20
68.6190916
11
22.427565
21
68.8174755
0
LINE
8
DEFAULT_255_1_234
10
23.0170946
20
68.5990123
11
23.0170946
21
68.8423739
0
LINE
8
DEFAULT_255_1_234
10
22.5761521
20
68.8536184
11
22.5761521
21
68.6158789
0
ARC
8
DEFAULT_255_1_234
10
21.9409707
20
68.6342805
40
1.2247208
50
353.8441951
51
0.2287902
0
ARC
8
DEFAULT_255_1_234
10
22.4049211
20
68.5824806
40
0.7578929
50
344.4934747
51
353.9765454
0
ARC
8
DEFAULT_255_1_234
10
22.7041801
20
68.4973981
40
0.4467846
50
329.2803592
51
344.7472793
0
ARC
8
DEFAULT_255_1_234
10
22.8034626
20
68.4429018
40
0.3336173
50
324.9352394
51
328.6160465
0
ARC
8
DEFAULT_255_1_234
10
22.8411734
20
68.4165427
40
0.2876076
50
280.580143
51
324.9173126
0
ARC
8
DEFAULT_255_1_234
10
22.8010527
20
68.5836099
40
0.4592847
50
269.5977311
51
281.6734359
0
ARC
8
DEFAULT_255_1_234
10
22.7938433
20
68.5716173
40
0.4472986
50
256.6228859
51
270.51044
0
ARC
8
DEFAULT_255_1_234
10
22.753641
20
68.4167877
40
0.2873874
50
215.8618325
51
257.2788573
0
ARC
8
DEFAULT_255_1_234
10
22.8557442
20
68.4852977
40
0.4102928
50
197.9693508
51
215.2623606
0
ARC
8
DEFAULT_255_1_234
10
23.1042558
20
68.5691709
40
0.6725652
50
187.8816417
51
198.2346507
0
ARC
8
DEFAULT_255_1_234
10
23.5000766
20
68.6263079
40
1.0724845
50
180.8976217
51
188.0055519
0
ARC
8
DEFAULT_255_1_234
10
23.7800954
20
68.6366777
40
1.3526448
50
180.7449369
51
181.1510016
0
ARC
8
DEFAULT_255_1_234
10
23.6223683
20
68.8223042
40
1.1948131
50
173.7675579
51
180.231553
0
ARC
8
DEFAULT_255_1_234
10
23.170583
20
68.8733666
40
0.7401564
50
164.3058563
51
173.9002247
0
ARC
8
DEFAULT_255_1_234
10
22.8793899
20
68.9572656
40
0.4371288
50
148.7922025
51
164.568378
0
ARC
8
DEFAULT_255_1_234
10
22.7842351
20
69.0103929
40
0.3282386
50
144.5883898
51
148.1176286
0
ARC
8
DEFAULT_255_1_234
10
22.7499249
20
69.0343315
40
0.2864044
50
101.6440918
51
144.514236
0
ARC
8
DEFAULT_255_1_234
10
22.7924315
20
68.8654069
40
0.4604934
50
89.5284041
51
102.5819763
0
ARC
8
DEFAULT_255_1_234
10
22.8003403
20
68.8615018
40
0.464401
50
77.0437873
51
90.5081339
0
ARC
8
DEFAULT_255_1_234
10
22.8405405
20
69.0257615
40
0.2953195
50
48.2778575
51
77.4994676
0
ARC
8
DEFAULT_255_1_234
10
22.8478036
20
69.0386746
40
0.2808655
50
36.3142134
51
47.6305865
0
ARC
8
DEFAULT_255_1_234
10
22.7609343
20
68.9801515
40
0.3855453
50
18.2931786
51
35.6769206
0
ARC
8
DEFAULT_255_1_234
10
22.5066102
20
68.8928593
40
0.654423
50
8.024666
51
18.5605216
0
ARC
8
DEFAULT_255_1_234
10
22.0903022
20
68.8313792
40
1.0752407
50
1.1274072
51
8.1718305
0
ARC
8
DEFAULT_255_1_234
10
21.7667213
20
68.8186885
40
1.3990231
50
0.5424119
51
1.3863029
0
ARC
8
DEFAULT_255_1_234
10
21.948859
20
68.8459342
40
1.0682415
50
359.8090433
51
4.9407866
0
ARC
8
DEFAULT_255_1_234
10
22.3698604
20
68.8835113
40
0.6455691
50
4.8362157
51
12.2904523
0
ARC
8
DEFAULT_255_1_234
10
22.6453719
20
68.9448965
40
0.3633074
50
12.0805627
51
23.8173984
0
ARC
8
DEFAULT_255_1_234
10
22.7627425
20
68.9945919
40
0.2358723
50
24.2871213
51
31.3935614
0
ARC
8
DEFAULT_255_1_234
10
22.8152122
20
69.0289233
40
0.1732111
50
30.7407893
51
82.4657128
0
ARC
8
DEFAULT_255_1_234
10
22.7972256
20
68.9405691
40
0.263235
50
81.1060089
51
90.2184952
0
ARC
8
DEFAULT_255_1_234
10
22.7936555
20
68.9663924
40
0.2374236
50
89.3806855
51
105.6762551
0
ARC
8
DEFAULT_255_1_234
10
22.7753186
20
69.0330567
40
0.1682847
50
105.7981136
51
149.7388061
0
ARC
8
DEFAULT_255_1_234
10
22.8817264
20
68.969095
40
0.2924306
50
149.4208916
51
163.6286378
0
ARC
8
DEFAULT_255_1_234
10
23.0908152
20
68.905325
40
0.5110213
50
163.3763315
51
172.1410975
0
ARC
8
DEFAULT_255_1_234
10
23.4208871
20
68.8580518
40
0.8444586
50
172.0259487
51
178.0703232
0
ARC
8
DEFAULT_255_1_234
10
23.723896
20
68.8436906
40
1.1477868
50
177.8631668
51
179.5044149
0
ARC
8
DEFAULT_255_1_234
10
23.6166365
20
68.6122389
40
1.0404907
50
179.7995573
51
185.2460446
0
ARC
8
DEFAULT_255_1_234
10
23.2123404
20
68.5739513
40
0.6343885
50
185.1411642
51
193.0079639
0
ARC
8
DEFAULT_255_1_234
10
22.9479877
20
68.5114641
40
0.3627568
50
192.7897626
51
205.2507664
0
ARC
8
DEFAULT_255_1_234
10
22.8433424
20
68.4647415
40
0.2481908
50
205.8005384
51
211.2537509
0
ARC
8
DEFAULT_255_1_234
10
22.7909864
20
68.429658
40
0.1852521
50
210.3789793
51
238.4008143
0
ARC
8
DEFAULT_255_1_234
10
22.7890386
20
68.4343376
40
0.1882621
50
239.6520629
51
265.9793761
0
ARC
8
DEFAULT_255_1_234
10
22.7975586
20
68.5015427
40
0.2559272
50
265.1315437
51
270.060332
0
ARC
8
DEFAULT_255_1_234
10
22.8004365
20
68.4691534
40
0.2235528
50
269.3314664
51
287.2178029
0
ARC
8
DEFAULT_255_1_234
10
22.8142217
20
68.4188279
40
0.1714108
50
287.7958004
51
329.080874
0
ARC
8
DEFAULT_255_1_234
10
22.7184674
20
68.478593
40
0.2842745
50
328.6634704
51
343.3325132
0
ARC
8
DEFAULT_255_1_234
10
22.5011694
20
68.5462863
40
0.5118644
50
343.0499468
51
351.9393422
0
ARC
8
DEFAULT_255_1_234
10
22.1544994
20
68.5973949
40
0.8622784
50
351.8069023
51
357.7959224
0
ARC
8
DEFAULT_255_1_234
10
21.830955
20
68.6141721
40
1.1862365
50
357.5871873
51
359.2677531
0
LINE
8
DEFAULT_255_1_234
10
23.4492021
20
69.3098211
11
23.7817161
21
68.3452093
0
LINE
8
DEFAULT_255_1_234
10
23.7817161
20
68.3452093
11
24.1158364
21
69.3098211
0
LINE
8
DEFAULT_255_1_234
10
24.1158364
20
69.3098211
11
24.2845029
21
69.3098211
0
LINE
8
DEFAULT_255_1_234
10
24.2845029
20
69.3098211
11
23.850789
21
68.1404
0
LINE
8
DEFAULT_255_1_234
10
23.850789
20
68.1404
11
23.7142495
21
68.1404
0
LINE
8
DEFAULT_255_1_234
10
23.7142495
20
68.1404
11
23.2813388
21
69.3098211
0
LINE
8
DEFAULT_255_1_234
10
23.2813388
20
69.3098211
11
23.4492021
21
69.3098211
0
LINE
8
DEFAULT_255_1_234
10
23.186823
20
5.0114663
11
23.3418355
21
5.0114663
0
LINE
8
DEFAULT_255_1_234
10
22.4414777
20
5.1704947
11
22.4414777
21
5.2829391
0
LINE
8
DEFAULT_255_1_234
10
23.3418355
20
5.4339357
11
23.186823
21
5.4339357
0
LINE
8
DEFAULT_255_1_234
10
22.5964902
20
5.2789232
11
22.5964902
21
5.1656757
0
ARC
8
DEFAULT_255_1_234
10
22.7937742
20
5.0711846
40
0.5513052
50
340.1774281
51
353.7814284
0
ARC
8
DEFAULT_255_1_234
10
22.9509095
20
5.0126582
40
0.3836379
50
311.4558989
51
340.4421614
0
ARC
8
DEFAULT_255_1_234
10
22.9475763
20
5.0237528
40
0.3941894
50
282.4333181
51
310.7513653
0
ARC
8
DEFAULT_255_1_234
10
22.9036502
20
5.2052679
40
0.5809175
50
269.9358511
51
282.809604
0
ARC
8
DEFAULT_255_1_234
10
22.8984568
20
5.3510212
40
0.7266847
50
270.0021091
51
270.3581957
0
ARC
8
DEFAULT_255_1_234
10
22.8931985
20
5.0909585
40
0.4666519
50
250.7884749
51
270.6489167
0
ARC
8
DEFAULT_255_1_234
10
22.876382
20
5.0272319
40
0.4009729
50
219.3627325
51
250.0611886
0
ARC
8
DEFAULT_255_1_234
10
22.9593031
20
5.0977042
40
0.5097822
50
193.5479632
51
219.5756669
0
ARC
8
DEFAULT_255_1_234
10
23.1964652
20
5.1592919
40
0.7547848
50
181.1218675
51
193.87563
0
ARC
8
DEFAULT_255_1_234
10
23.4034833
20
5.170358
40
0.9620055
50
179.9918545
51
181.5394234
0
ARC
8
DEFAULT_255_1_234
10
23.2183935
20
5.2866788
40
0.7769248
50
169.5837241
51
180.2757934
0
ARC
8
DEFAULT_255_1_234
10
23.0346873
20
5.3206229
40
0.590109
50
155.0365899
51
169.6003176
0
ARC
8
DEFAULT_255_1_234
10
22.9211337
20
5.3753677
40
0.4640625
50
136.783148
51
155.2472683
0
ARC
8
DEFAULT_255_1_234
10
22.8821814
20
5.4084562
40
0.4130255
50
121.7633186
51
136.428115
0
ARC
8
DEFAULT_255_1_234
10
22.8956776
20
5.3835227
40
0.4413323
50
95.6459699
51
121.5490577
0
ARC
8
DEFAULT_255_1_234
10
22.9114058
20
5.2726949
40
0.55319
50
89.924208
51
96.1377933
0
ARC
8
DEFAULT_255_1_234
10
22.9164491
20
5.2845542
40
0.5413475
50
76.6779277
51
90.4563316
0
ARC
8
DEFAULT_255_1_234
10
22.9558114
20
5.4436114
40
0.3775041
50
47.485847
51
76.9287264
0
ARC
8
DEFAULT_255_1_234
10
22.9411087
20
5.4336159
40
0.3948286
50
16.5424086
51
46.8933463
0
ARC
8
DEFAULT_255_1_234
10
22.7803244
20
5.3807861
40
0.564021
50
5.4072051
51
17.0365086
0
ARC
8
DEFAULT_255_1_234
10
22.6364261
20
5.3576679
40
0.5556559
50
7.8891745
51
15.9239216
0
ARC
8
DEFAULT_255_1_234
10
22.8351274
20
5.4153631
40
0.3487515
50
15.7653144
51
27.9410532
0
ARC
8
DEFAULT_255_1_234
10
22.9455492
20
5.474479
40
0.2235026
50
27.8166557
51
46.4008329
0
ARC
8
DEFAULT_255_1_234
10
22.9505135
20
5.4739082
40
0.2205286
50
47.4371857
51
75.0698205
0
ARC
8
DEFAULT_255_1_234
10
22.9196529
20
5.3664765
40
0.3322915
50
74.7008593
51
87.8124495
0
ARC
8
DEFAULT_255_1_234
10
22.9123217
20
5.2608844
40
0.4380987
50
87.3814673
51
90.0240855
0
ARC
8
DEFAULT_255_1_234
10
22.908476
20
5.3786291
40
0.3203749
50
89.3451631
51
108.5745436
0
ARC
8
DEFAULT_255_1_234
10
22.8947865
20
5.4299908
40
0.2673494
50
109.2998449
51
143.3037509
0
ARC
8
DEFAULT_255_1_234
10
22.9709938
20
5.3713881
40
0.3634757
50
143.0753173
51
163.1916937
0
ARC
8
DEFAULT_255_1_234
10
23.1661666
20
5.3097967
40
0.5681262
50
162.9373603
51
174.6208611
0
ARC
8
DEFAULT_255_1_234
10
23.4287708
20
5.281001
40
0.8322832
50
174.3419979
51
180.1430411
0
ARC
8
DEFAULT_255_1_234
10
23.3356864
20
5.1615698
40
0.7392076
50
179.6817502
51
189.150529
0
ARC
8
DEFAULT_255_1_234
10
23.0856112
20
5.119919
40
0.4856932
50
188.9910863
51
203.5773039
0
ARC
8
DEFAULT_255_1_234
10
22.9776445
20
5.0751211
40
0.3688271
50
203.9077269
51
215.1312379
0
ARC
8
DEFAULT_255_1_234
10
22.8853539
20
5.0035941
40
0.2522457
50
213.9071664
51
263.8849284
0
ARC
8
DEFAULT_255_1_234
10
22.8978868
20
5.0820518
40
0.3316174
50
263.1758525
51
270.1031083
0
ARC
8
DEFAULT_255_1_234
10
22.901096
20
5.2067365
40
0.4563091
50
269.6719807
51
279.0609165
0
ARC
8
DEFAULT_255_1_234
10
22.9277728
20
5.0454907
40
0.2928759
50
278.8750225
51
293.6346586
0
ARC
8
DEFAULT_255_1_234
10
22.9597936
20
4.97029
40
0.2111472
50
293.8553404
51
310.0518804
0
ARC
8
DEFAULT_255_1_234
10
22.960279
20
4.9640516
40
0.2060917
50
311.0646779
51
332.0108348
0
ARC
8
DEFAULT_255_1_234
10
22.8410517
20
5.0297978
40
0.3422352
50
331.6588543
51
343.2878891
0
ARC
8
DEFAULT_255_1_234
10
22.6348032
20
5.0931798
40
0.5580003
50
343.1446044
51
351.010618
0
ARC
8
DEFAULT_255_1_234
10
22.4806678
20
5.1212871
40
0.7146438
50
350.7157277
51
351.1602153
0
LINE
8
DEFAULT_255_1_234
10
24.2470125
20
5.3319327
11
24.2470125
21
5.1391709
0
LINE
8
DEFAULT_255_1_234
10
23.5088957
20
5.1190916
11
23.5088957
21
5.3174755
0
LINE
8
DEFAULT_255_1_234
10
24.0984253
20
5.0990123
11
24.0984253
21
5.3423739
0
LINE
8
DEFAULT_255_1_234
10
23.6574829
20
5.3536184
11
23.6574829
21
5.1158789
0
ARC
8
DEFAULT_255_1_234
10
23.0223014
20
5.1342805
40
1.2247208
50
353.8441951
51
0.2287902
0
ARC
8
DEFAULT_255_1_234
10
23.4862518
20
5.0824806
40
0.7578929
50
344.4934747
51
353.9765454
0
ARC
8
DEFAULT_255_1_234
10
23.7855108
20
4.9973981
40
0.4467846
50
329.2803592
51
344.7472793
0
ARC
8
DEFAULT_255_1_234
10
23.8847933
20
4.9429018
40
0.3336173
50
324.9352394
51
328.6160465
0
ARC
8
DEFAULT_255_1_234
10
23.9225042
20
4.9165427
40
0.2876076
50
280.580143
51
324.9173126
0
ARC
8
DEFAULT_255_1_234
10
23.8823834
20
5.0836099
40
0.4592847
50
269.5977311
51
281.6734359
0
ARC
8
DEFAULT_255_1_234
10
23.875174
20
5.0716173
40
0.4472986
50
256.6228859
51
270.51044
0
ARC
8
DEFAULT_255_1_234
10
23.8349718
20
4.9167877
40
0.2873874
50
215.8618325
51
257.2788573
0
ARC
8
DEFAULT_255_1_234
10
23.9370749
20
4.9852977
40
0.4102928
50
197.9693508
51
215.2623606
0
ARC
8
DEFAULT_255_1_234
10
24.1855865
20
5.0691709
40
0.6725652
50
187.8816417
51
198.2346507
0
ARC
8
DEFAULT_255_1_234
10
24.5814073
20
5.1263079
40
1.0724845
50
180.8976217
51
188.0055519
0
ARC
8
DEFAULT_255_1_234
10
24.8614261
20
5.1366777
40
1.3526448
50
180.7449369
51
181.1510016
0
ARC
8
DEFAULT_255_1_234
10
24.703699
20
5.3223042
40
1.1948131
50
173.7675579
51
180.231553
0
ARC
8
DEFAULT_255_1_234
10
24.2519137
20
5.3733666
40
0.7401564
50
164.3058563
51
173.9002247
0
ARC
8
DEFAULT_255_1_234
10
23.9607206
20
5.4572656
40
0.4371288
50
148.7922025
51
164.568378
0
ARC
8
DEFAULT_255_1_234
10
23.8655658
20
5.5103929
40
0.3282386
50
144.5883898
51
148.1176286
0
ARC
8
DEFAULT_255_1_234
10
23.8312556
20
5.5343315
40
0.2864044
50
101.6440918
51
144.514236
0
ARC
8
DEFAULT_255_1_234
10
23.8737623
20
5.3654069
40
0.4604934
50
89.5284041
51
102.5819763
0
ARC
8
DEFAULT_255_1_234
10
23.881671
20
5.3615018
40
0.464401
50
77.0437873
51
90.5081339
0
ARC
8
DEFAULT_255_1_234
10
23.9218712
20
5.5257615
40
0.2953195
50
48.2778575
51
77.4994676
0
ARC
8
DEFAULT_255_1_234
10
23.9291343
20
5.5386746
40
0.2808655
50
36.3142134
51
47.6305865
0
ARC
8
DEFAULT_255_1_234
10
23.842265
20
5.4801515
40
0.3855453
50
18.2931786
51
35.6769206
0
ARC
8
DEFAULT_255_1_234
10
23.5879409
20
5.3928593
40
0.654423
50
8.024666
51
18.5605216
0
ARC
8
DEFAULT_255_1_234
10
23.1716329
20
5.3313792
40
1.0752407
50
1.1274072
51
8.1718305
0
ARC
8
DEFAULT_255_1_234
10
22.848052
20
5.3186885
40
1.3990231
50
0.5424119
51
1.3863029
0
ARC
8
DEFAULT_255_1_234
10
23.0301898
20
5.3459342
40
1.0682415
50
359.8090433
51
4.9407866
0
ARC
8
DEFAULT_255_1_234
10
23.4511912
20
5.3835113
40
0.6455691
50
4.8362157
51
12.2904523
0
ARC
8
DEFAULT_255_1_234
10
23.7267026
20
5.4448965
40
0.3633074
50
12.0805627
51
23.8173984
0
ARC
8
DEFAULT_255_1_234
10
23.8440732
20
5.4945919
40
0.2358723
50
24.2871213
51
31.3935614
0
ARC
8
DEFAULT_255_1_234
10
23.8965429
20
5.5289233
40
0.1732111
50
30.7407893
51
82.4657128
0
ARC
8
DEFAULT_255_1_234
10
23.8785563
20
5.4405691
40
0.263235
50
81.1060089
51
90.2184952
0
ARC
8
DEFAULT_255_1_234
10
23.8749862
20
5.4663924
40
0.2374236
50
89.3806855
51
105.6762551
0
ARC
8
DEFAULT_255_1_234
10
23.8566493
20
5.5330567
40
0.1682847
50
105.7981136
51
149.7388061
0
ARC
8
DEFAULT_255_1_234
10
23.9630571
20
5.469095
40
0.2924306
50
149.4208916
51
163.6286378
0
ARC
8
DEFAULT_255_1_234
10
24.1721459
20
5.405325
40
0.5110213
50
163.3763315
51
172.1410975
0
ARC
8
DEFAULT_255_1_234
10
24.5022178
20
5.3580518
40
0.8444586
50
172.0259487
51
178.0703232
0
ARC
8
DEFAULT_255_1_234
10
24.8052268
20
5.3436906
40
1.1477868
50
177.8631668
51
179.5044149
0
ARC
8
DEFAULT_255_1_234
10
24.6979672
20
5.1122389
40
1.0404907
50
179.7995573
51
185.2460446
0
ARC
8
DEFAULT_255_1_234
10
24.2936711
20
5.0739513
40
0.6343885
50
185.1411642
51
193.0079639
0
ARC
8
DEFAULT_255_1_234
10
24.0293184
20
5.0114641
40
0.3627568
50
192.7897626
51
205.2507664
0
ARC
8
DEFAULT_255_1_234
10
23.9246731
20
4.9647415
40
0.2481908
50
205.8005384
51
211.2537509
0
ARC
8
DEFAULT_255_1_234
10
23.8723171
20
4.929658
40
0.1852521
50
210.3789793
51
238.4008143
0
ARC
8
DEFAULT_255_1_234
10
23.8703693
20
4.9343376
40
0.1882621
50
239.6520629
51
265.9793761
0
ARC
8
DEFAULT_255_1_234
10
23.8788893
20
5.0015427
40
0.2559272
50
265.1315437
51
270.060332
0
ARC
8
DEFAULT_255_1_234
10
23.8817672
20
4.9691534
40
0.2235528
50
269.3314664
51
287.2178029
0
ARC
8
DEFAULT_255_1_234
10
23.8955524
20
4.9188279
40
0.1714108
50
287.7958004
51
329.080874
0
ARC
8
DEFAULT_255_1_234
10
23.7997981
20
4.978593
40
0.2842745
50
328.6634704
51
343.3325132
0
ARC
8
DEFAULT_255_1_234
10
23.5825001
20
5.0462863
40
0.5118644
50
343.0499468
51
351.9393422
0
ARC
8
DEFAULT_255_1_234
10
23.2358301
20
5.0973949
40
0.8622784
50
351.8069023
51
357.7959224
0
ARC
8
DEFAULT_255_1_234
10
22.9122857
20
5.1141721
40
1.1862365
50
357.5871873
51
359.2677531
0
LINE
8
DEFAULT_255_1_234
10
22.4564522
20
13.7473211
11
22.7889662
21
12.7827093
0
LINE
8
DEFAULT_255_1_234
10
22.7889662
20
12.7827093
11
23.1230865
21
13.7473211
0
LINE
8
DEFAULT_255_1_234
10
23.1230865
20
13.7473211
11
23.291753
21
13.7473211
0
LINE
8
DEFAULT_255_1_234
10
23.291753
20
13.7473211
11
22.8580391
21
12.5779
0
LINE
8
DEFAULT_255_1_234
10
22.8580391
20
12.5779
11
22.7214996
21
12.5779
0
LINE
8
DEFAULT_255_1_234
10
22.7214996
20
12.5779
11
22.2885889
21
13.7473211
0
LINE
8
DEFAULT_255_1_234
10
22.2885889
20
13.7473211
11
22.4564522
21
13.7473211
0
LINE
8
DEFAULT_255_1_234
10
24.1431172
20
13.2694327
11
24.1431172
21
13.0766709
0
LINE
8
DEFAULT_255_1_234
10
23.4050005
20
13.0565916
11
23.4050005
21
13.2549755
0
LINE
8
DEFAULT_255_1_234
10
23.9945301
20
13.0365123
11
23.9945301
21
13.2798739
0
LINE
8
DEFAULT_255_1_234
10
23.5535876
20
13.2911184
11
23.5535876
21
13.0533789
0
ARC
8
DEFAULT_255_1_234
10
22.9184062
20
13.0717805
40
1.2247208
50
353.8441951
51
0.2287902
0
ARC
8
DEFAULT_255_1_234
10
23.3823566
20
13.0199806
40
0.7578929
50
344.4934747
51
353.9765454
0
ARC
8
DEFAULT_255_1_234
10
23.6816156
20
12.9348981
40
0.4467846
50
329.2803592
51
344.7472793
0
ARC
8
DEFAULT_255_1_234
10
23.7808981
20
12.8804018
40
0.3336173
50
324.9352394
51
328.6160465
0
ARC
8
DEFAULT_255_1_234
10
23.8186089
20
12.8540427
40
0.2876076
50
280.580143
51
324.9173126
0
ARC
8
DEFAULT_255_1_234
10
23.7784882
20
13.0211099
40
0.4592847
50
269.5977311
51
281.6734359
0
ARC
8
DEFAULT_255_1_234
10
23.7712788
20
13.0091173
40
0.4472986
50
256.6228859
51
270.51044
0
ARC
8
DEFAULT_255_1_234
10
23.7310765
20
12.8542877
40
0.2873874
50
215.8618325
51
257.2788573
0
ARC
8
DEFAULT_255_1_234
10
23.8331797
20
12.9227977
40
0.4102928
50
197.9693508
51
215.2623606
0
ARC
8
DEFAULT_255_1_234
10
24.0816913
20
13.0066709
40
0.6725652
50
187.8816417
51
198.2346507
0
ARC
8
DEFAULT_255_1_234
10
24.4775121
20
13.0638079
40
1.0724845
50
180.8976217
51
188.0055519
0
ARC
8
DEFAULT_255_1_234
10
24.7575309
20
13.0741777
40
1.3526448
50
180.7449369
51
181.1510016
0
ARC
8
DEFAULT_255_1_234
10
24.5998038
20
13.2598042
40
1.1948131
50
173.7675579
51
180.231553
0
ARC
8
DEFAULT_255_1_234
10
24.1480185
20
13.3108666
40
0.7401564
50
164.3058563
51
173.9002247
0
ARC
8
DEFAULT_255_1_234
10
23.8568254
20
13.3947656
40
0.4371288
50
148.7922025
51
164.568378
0
ARC
8
DEFAULT_255_1_234
10
23.7616706
20
13.4478929
40
0.3282386
50
144.5883898
51
148.1176286
0
ARC
8
DEFAULT_255_1_234
10
23.7273604
20
13.4718315
40
0.2864044
50
101.6440918
51
144.514236
0
ARC
8
DEFAULT_255_1_234
10
23.769867
20
13.3029069
40
0.4604934
50
89.5284041
51
102.5819763
0
ARC
8
DEFAULT_255_1_234
10
23.7777758
20
13.2990018
40
0.464401
50
77.0437873
51
90.5081339
0
ARC
8
DEFAULT_255_1_234
10
23.817976
20
13.4632615
40
0.2953195
50
48.2778575
51
77.4994676
0
ARC
8
DEFAULT_255_1_234
10
23.8252391
20
13.4761746
40
0.2808655
50
36.3142134
51
47.6305865
0
ARC
8
DEFAULT_255_1_234
10
23.7383698
20
13.4176515
40
0.3855453
50
18.2931786
51
35.6769206
0
ARC
8
DEFAULT_255_1_234
10
23.4840457
20
13.3303593
40
0.654423
50
8.024666
51
18.5605216
0
ARC
8
DEFAULT_255_1_234
10
23.0677377
20
13.2688792
40
1.0752407
50
1.1274072
51
8.1718305
0
ARC
8
DEFAULT_255_1_234
10
22.7441568
20
13.2561885
40
1.3990231
50
0.5424119
51
1.3863029
0
ARC
8
DEFAULT_255_1_234
10
22.9262945
20
13.2834342
40
1.0682415
50
359.8090433
51
4.9407866
0
ARC
8
DEFAULT_255_1_234
10
23.3472959
20
13.3210113
40
0.6455691
50
4.8362157
51
12.2904523
0
ARC
8
DEFAULT_255_1_234
10
23.6228074
20
13.3823965
40
0.3633074
50
12.0805627
51
23.8173984
0
ARC
8
DEFAULT_255_1_234
10
23.740178
20
13.4320919
40
0.2358723
50
24.2871213
51
31.3935614
0
ARC
8
DEFAULT_255_1_234
10
23.7926477
20
13.4664233
40
0.1732111
50
30.7407893
51
82.4657128
0
ARC
8
DEFAULT_255_1_234
10
23.7746611
20
13.3780691
40
0.263235
50
81.1060089
51
90.2184952
0
ARC
8
DEFAULT_255_1_234
10
23.771091
20
13.4038924
40
0.2374236
50
89.3806855
51
105.6762551
0
ARC
8
DEFAULT_255_1_234
10
23.7527541
20
13.4705567
40
0.1682847
50
105.7981136
51
149.7388061
0
ARC
8
DEFAULT_255_1_234
10
23.8591619
20
13.406595
40
0.2924306
50
149.4208916
51
163.6286378
0
ARC
8
DEFAULT_255_1_234
10
24.0682507
20
13.342825
40
0.5110213
50
163.3763315
51
172.1410975
0
ARC
8
DEFAULT_255_1_234
10
24.3983226
20
13.2955518
40
0.8444586
50
172.0259487
51
178.0703232
0
ARC
8
DEFAULT_255_1_234
10
24.7013315
20
13.2811906
40
1.1477868
50
177.8631668
51
179.5044149
0
ARC
8
DEFAULT_255_1_234
10
24.594072
20
13.0497389
40
1.0404907
50
179.7995573
51
185.2460446
0
ARC
8
DEFAULT_255_1_234
10
24.1897759
20
13.0114513
40
0.6343885
50
185.1411642
51
193.0079639
0
ARC
8
DEFAULT_255_1_234
10
23.9254232
20
12.9489641
40
0.3627568
50
192.7897626
51
205.2507664
0
ARC
8
DEFAULT_255_1_234
10
23.8207779
20
12.9022415
40
0.2481908
50
205.8005384
51
211.2537509
0
ARC
8
DEFAULT_255_1_234
10
23.7684219
20
12.867158
40
0.1852521
50
210.3789793
51
238.4008143
0
ARC
8
DEFAULT_255_1_234
10
23.7664741
20
12.8718376
40
0.1882621
50
239.6520629
51
265.9793761
0
ARC
8
DEFAULT_255_1_234
10
23.7749941
20
12.9390427
40
0.2559272
50
265.1315437
51
270.060332
0
ARC
8
DEFAULT_255_1_234
10
23.777872
20
12.9066534
40
0.2235528
50
269.3314664
51
287.2178029
0
ARC
8
DEFAULT_255_1_234
10
23.7916572
20
12.8563279
40
0.1714108
50
287.7958004
51
329.080874
0
ARC
8
DEFAULT_255_1_234
10
23.6959029
20
12.916093
40
0.2842745
50
328.6634704
51
343.3325132
0
ARC
8
DEFAULT_255_1_234
10
23.4786049
20
12.9837863
40
0.5118644
50
343.0499468
51
351.9393422
0
ARC
8
DEFAULT_255_1_234
10
23.1319349
20
13.0348949
40
0.8622784
50
351.8069023
51
357.7959224
0
ARC
8
DEFAULT_255_1_234
10
22.8083905
20
13.0516721
40
1.1862365
50
357.5871873
51
359.2677531
0
LINE
8
DEFAULT_255_1_234
10
23.0886137
20
21.6904433
11
23.0886137
21
20.5154
0
LINE
8
DEFAULT_255_1_234
10
23.0886137
20
20.5154
11
22.9392234
21
20.5154
0
LINE
8
DEFAULT_255_1_234
10
22.9392234
20
20.5154
11
22.9392234
21
21.5057133
0
LINE
8
DEFAULT_255_1_234
10
22.9392234
20
21.5057133
11
22.6396396
21
21.3956785
0
LINE
8
DEFAULT_255_1_234
10
22.6396396
20
21.3956785
11
22.6396396
21
21.5306117
0
LINE
8
DEFAULT_255_1_234
10
22.6396396
20
21.5306117
11
23.0653217
21
21.6904433
0
LINE
8
DEFAULT_255_1_234
10
23.0653217
20
21.6904433
11
23.0886137
21
21.6904433
0
LINE
8
DEFAULT_255_1_234
10
24.2427745
20
21.2173739
11
24.2427745
21
21.1740025
0
LINE
8
DEFAULT_255_1_234
10
23.7006322
20
20.5145968
11
23.6717179
21
20.5145968
0
LINE
8
DEFAULT_255_1_234
10
23.6717179
20
20.5145968
11
23.6717179
21
20.6398919
0
LINE
8
DEFAULT_255_1_234
10
23.6717179
20
20.6398919
11
23.7030417
21
20.6398919
0
LINE
8
DEFAULT_255_1_234
10
24.0941874
20
21.1884597
11
24.0941874
21
21.2478945
0
ARC
8
DEFAULT_255_1_234
10
23.8148143
20
21.2630403
40
0.3635579
50
297.4037347
51
320.016758
0
ARC
8
DEFAULT_255_1_234
10
23.8438092
20
21.207324
40
0.3007486
50
270.2633101
51
297.3851877
0
ARC
8
DEFAULT_255_1_234
10
23.8404048
20
21.2536904
40
0.3471448
50
269.9966443
51
270.7900392
0
ARC
8
DEFAULT_255_1_234
10
23.8378529
20
21.2535143
40
0.3469779
50
254.5999133
51
270.4180344
0
ARC
8
DEFAULT_255_1_234
10
23.8235888
20
21.1970647
40
0.2887697
50
236.4717942
51
254.3541279
0
ARC
8
DEFAULT_255_1_234
10
23.8392106
20
21.2180711
40
0.3149125
50
208.4727207
51
236.2134933
0
ARC
8
DEFAULT_255_1_234
10
23.9030881
20
21.2571455
40
0.3897115
50
204.3447514
51
209.0453999
0
ARC
8
DEFAULT_255_1_234
10
23.9710457
20
21.2859656
40
0.4635101
50
183.9375985
51
204.1276318
0
ARC
8
DEFAULT_255_1_234
10
24.0618708
20
21.2957482
40
0.5548037
50
179.9652252
51
184.3013875
0
ARC
8
DEFAULT_255_1_234
10
24.0378754
20
21.2990507
40
0.5308164
50
166.7585989
51
180.3201225
0
ARC
8
DEFAULT_255_1_234
10
23.9532368
20
21.3174488
40
0.4442163
50
154.6955053
51
166.5679793
0
ARC
8
DEFAULT_255_1_234
10
23.8679238
20
21.360421
40
0.3487299
50
136.3324195
51
155.0871442
0
ARC
8
DEFAULT_255_1_234
10
23.8398311
20
21.3844954
40
0.3117924
50
121.236733
51
135.9680508
0
ARC
8
DEFAULT_255_1_234
10
23.8538809
20
21.3584743
40
0.3413302
50
96.845628
51
120.9881519
0
ARC
8
DEFAULT_255_1_234
10
23.8684391
20
21.2649515
40
0.4359341
50
89.8870174
51
97.2802754
0
ARC
8
DEFAULT_255_1_234
10
23.8736829
20
21.3287095
40
0.3722009
50
70.6505584
51
90.6749113
0
ARC
8
DEFAULT_255_1_234
10
23.8868108
20
21.3800361
40
0.3194571
50
36.7492984
51
69.8219918
0
ARC
8
DEFAULT_255_1_234
10
23.7869273
20
21.3021993
40
0.4460685
50
15.39587
51
37.0840084
0
ARC
8
DEFAULT_255_1_234
10
23.5739706
20
21.2401242
40
0.6678714
50
3.9488873
51
15.6798563
0
ARC
8
DEFAULT_255_1_234
10
23.3338334
20
21.2184964
40
0.9089418
50
359.929245
51
4.2665314
0
ARC
8
DEFAULT_255_1_234
10
22.8732771
20
21.1673513
40
1.3695135
50
352.8366322
51
0.2782669
0
ARC
8
DEFAULT_255_1_234
10
23.402045
20
21.0986629
40
0.8363105
50
341.8359505
51
352.9884176
0
ARC
8
DEFAULT_255_1_234
10
23.7239169
20
20.99017
40
0.4966642
50
322.8578092
51
342.1527901
0
ARC
8
DEFAULT_255_1_234
10
23.8103125
20
20.9312384
40
0.3922466
50
319.334325
51
322.0998941
0
ARC
8
DEFAULT_255_1_234
10
23.7793462
20
20.9623209
40
0.4360033
50
285.9541367
51
318.8878087
0
ARC
8
DEFAULT_255_1_234
10
23.7066723
20
21.19336
40
0.678149
50
272.9281676
51
286.4922826
0
ARC
8
DEFAULT_255_1_234
10
23.6876841
20
21.4184587
40
0.9039547
50
270.8207226
51
273.4012994
0
ARC
8
DEFAULT_255_1_234
10
23.6965692
20
21.2365666
40
0.5967098
50
270.6214993
51
281.4062806
0
ARC
8
DEFAULT_255_1_234
10
23.7395673
20
21.0309833
40
0.3866861
50
281.1852553
51
299.0621114
0
ARC
8
DEFAULT_255_1_234
10
23.7769244
20
20.9588798
40
0.3055236
50
299.5067782
51
313.1200873
0
ARC
8
DEFAULT_255_1_234
10
23.7791211
20
20.9509554
40
0.2982623
50
313.8526205
51
338.5989322
0
ARC
8
DEFAULT_255_1_234
10
23.6167285
20
21.0176781
40
0.4738131
50
338.2523585
51
351.2430902
0
ARC
8
DEFAULT_255_1_234
10
23.3756581
20
21.0586447
40
0.7183203
50
350.9409515
51
357.6691871
0
ARC
8
DEFAULT_255_1_234
10
23.8647011
20
21.2588764
40
0.2294452
50
269.9447023
51
306.8248917
0
ARC
8
DEFAULT_255_1_234
10
23.8409926
20
21.3011898
40
0.2775994
50
305.5072438
51
327.0773448
0
ARC
8
DEFAULT_255_1_234
10
23.8528367
20
21.2917025
40
0.2625056
50
327.4104943
51
336.840169
0
ARC
8
DEFAULT_255_1_234
10
23.5434432
20
21.2511302
40
0.5507537
50
359.6633817
51
10.117533
0
ARC
8
DEFAULT_255_1_234
10
23.718823
20
21.2835777
40
0.372403
50
9.9430141
51
26.7700076
0
ARC
8
DEFAULT_255_1_234
10
23.7785442
20
21.3111187
40
0.3066865
50
27.2015464
51
34.6829435
0
ARC
8
DEFAULT_255_1_234
10
23.8274922
20
21.3478977
40
0.245519
50
34.1250343
51
50.3070065
0
ARC
8
DEFAULT_255_1_234
10
23.8721602
20
21.4013385
40
0.1758693
50
50.3851167
51
90.6705993
0
ARC
8
DEFAULT_255_1_234
10
23.8674835
20
21.3708799
40
0.2063326
50
89.272901
51
111.9140407
0
ARC
8
DEFAULT_255_1_234
10
23.8655363
20
21.384944
40
0.1925887
50
112.9382311
51
142.5320782
0
ARC
8
DEFAULT_255_1_234
10
23.9201543
20
21.3405969
40
0.2629232
50
142.1021256
51
166.3835592
0
ARC
8
DEFAULT_255_1_234
10
24.0382848
20
21.3100915
40
0.3849193
50
166.1100289
51
178.665427
0
ARC
8
DEFAULT_255_1_234
10
24.1430437
20
21.3042117
40
0.4897989
50
178.2632126
51
180.0111093
0
ARC
8
DEFAULT_255_1_234
10
24.0628558
20
21.3013728
40
0.40962
50
179.6161962
51
191.8787166
0
ARC
8
DEFAULT_255_1_234
10
23.9408397
20
21.2743896
40
0.2846655
50
191.6191692
51
215.2972286
0
ARC
8
DEFAULT_255_1_234
10
23.9211588
20
21.2628918
40
0.2619665
50
215.7320102
51
216.5355409
0
ARC
8
DEFAULT_255_1_234
10
23.8672674
20
21.2196647
40
0.1929497
50
215.7486685
51
239.9727502
0
ARC
8
DEFAULT_255_1_234
10
23.860259
20
21.2145894
40
0.1850822
50
241.0650169
51
269.2810483
0
ARC
8
DEFAULT_255_1_234
10
23.8644505
20
21.2636371
40
0.2342059
50
268.4062526
51
270.0071348
0
LINE
8
DEFAULT_255_1_234
10
23.0886137
20
29.6279433
11
23.0886137
21
28.4529
0
LINE
8
DEFAULT_255_1_234
10
23.0886137
20
28.4529
11
22.9392234
21
28.4529
0
LINE
8
DEFAULT_255_1_234
10
22.9392234
20
28.4529
11
22.9392234
21
29.4432133
0
LINE
8
DEFAULT_255_1_234
10
22.9392234
20
29.4432133
11
22.6396396
21
29.3331785
0
LINE
8
DEFAULT_255_1_234
10
22.6396396
20
29.3331785
11
22.6396396
21
29.4681117
0
LINE
8
DEFAULT_255_1_234
10
22.6396396
20
29.4681117
11
23.0653217
21
29.6279433
0
LINE
8
DEFAULT_255_1_234
10
23.0653217
20
29.6279433
11
23.0886137
21
29.6279433
0
ARC
8
DEFAULT_255_1_234
10
23.9509123
20
29.3145703
40
0.2822356
50
338.8763615
51
0.5166041
0
ARC
8
DEFAULT_255_1_234
10
23.9677777
20
29.3100208
40
0.2648703
50
325.8412414
51
338.4795939
0
ARC
8
DEFAULT_255_1_234
10
23.9287145
20
29.3371042
40
0.3124019
50
296.7586019
51
325.753654
0
ARC
8
DEFAULT_255_1_234
10
23.8999253
20
29.3855789
40
0.368668
50
296.0902311
51
297.3618122
0
ARC
8
DEFAULT_255_1_234
10
23.9256711
20
28.7301041
40
0.3518806
50
47.9009248
51
67.1946869
0
ARC
8
DEFAULT_255_1_234
10
23.9452953
20
28.7547395
40
0.320451
50
35.236241
51
47.551371
0
ARC
8
DEFAULT_255_1_234
10
23.9714571
20
28.7721993
40
0.2890103
50
359.2759738
51
35.4014081
0
ARC
8
DEFAULT_255_1_234
10
23.8969602
20
28.7648826
40
0.3635026
50
343.1294516
51
0.5776525
0
ARC
8
DEFAULT_255_1_234
10
23.9694147
20
28.744933
40
0.2883832
50
310.8497458
51
342.744803
0
ARC
8
DEFAULT_255_1_234
10
23.927626
20
28.7926294
40
0.3517954
50
281.5473923
51
310.9169905
0
ARC
8
DEFAULT_255_1_234
10
23.891971
20
28.9479084
40
0.5110832
50
269.6192722
51
281.9789957
0
ARC
8
DEFAULT_255_1_234
10
23.8847499
20
28.9479828
40
0.5111606
50
257.4584469
51
270.4287458
0
ARC
8
DEFAULT_255_1_234
10
23.8466642
20
28.7876344
40
0.3463762
50
228.7553743
51
257.8484423
0
ARC
8
DEFAULT_255_1_234
10
23.815684
20
28.7503442
40
0.297916
50
184.0104442
51
228.5071787
0
ARC
8
DEFAULT_255_1_234
10
23.9319784
20
28.7680512
40
0.4152734
50
179.9315461
51
185.3254504
0
ARC
8
DEFAULT_255_1_234
10
23.814343
20
28.7717992
40
0.2976554
50
145.6795913
51
180.6259649
0
ARC
8
DEFAULT_255_1_234
10
23.8306779
20
28.7603929
40
0.3175776
50
115.5537925
51
145.6416199
0
ARC
8
DEFAULT_255_1_234
10
23.8647709
20
28.6993028
40
0.3874232
50
113.2437915
51
116.2054627
0
ARC
8
DEFAULT_255_1_234
10
23.8494922
20
29.339158
40
0.3154751
50
222.9548379
51
244.1372485
0
ARC
8
DEFAULT_255_1_234
10
23.8372997
20
29.3254834
40
0.2972382
50
213.3439227
51
222.6271327
0
ARC
8
DEFAULT_255_1_234
10
23.8180932
20
29.3124308
40
0.274019
50
180.4316517
51
213.2713999
0
ARC
8
DEFAULT_255_1_234
10
23.8755933
20
29.317111
40
0.33158
50
179.9992944
51
181.1655061
0
ARC
8
DEFAULT_255_1_234
10
23.916535
20
29.3205561
40
0.3725376
50
164.6186108
51
180.5292368
0
ARC
8
DEFAULT_255_1_234
10
23.8267213
20
29.3447101
40
0.2795349
50
132.2454369
51
164.5092287
0
ARC
8
DEFAULT_255_1_234
10
23.8554317
20
29.3122028
40
0.3229019
50
100.7052766
51
132.1387266
0
ARC
8
DEFAULT_255_1_234
10
23.8859289
20
29.1744086
40
0.4639835
50
89.6732617
51
101.2449487
0
ARC
8
DEFAULT_255_1_234
10
23.8921487
20
29.191899
40
0.4464999
50
76.2876631
51
90.4586123
0
ARC
8
DEFAULT_255_1_234
10
23.9227719
20
29.314122
40
0.3205023
50
47.8240157
51
76.4266918
0
ARC
8
DEFAULT_255_1_234
10
23.9450269
20
29.340159
40
0.2862661
50
6.9168658
51
47.6261438
0
ARC
8
DEFAULT_255_1_234
10
23.8263672
20
29.318237
40
0.4067708
50
359.8419705
51
7.9694496
0
ARC
8
DEFAULT_255_1_234
10
23.8605569
20
28.7741925
40
0.2513121
50
359.4454068
51
16.9256425
0
ARC
8
DEFAULT_255_1_234
10
23.907438
20
28.7871033
40
0.2027071
50
17.292259
51
45.462717
0
ARC
8
DEFAULT_255_1_234
10
23.9020316
20
28.7824434
40
0.2098212
50
45.3028762
51
83.1921472
0
ARC
8
DEFAULT_255_1_234
10
23.8877
20
28.7022895
40
0.2911472
50
82.2614531
51
90.143954
0
ARC
8
DEFAULT_255_1_234
10
23.884612
20
28.725595
40
0.2678513
50
89.4959189
51
104.8579811
0
ARC
8
DEFAULT_255_1_234
10
23.8669379
20
28.792589
40
0.1985654
50
104.8855873
51
135.2448349
0
ARC
8
DEFAULT_255_1_234
10
23.8719152
20
28.7881336
40
0.2052373
50
135.3398955
51
172.104394
0
ARC
8
DEFAULT_255_1_234
10
23.952621
20
28.7726925
40
0.2873299
50
171.2651929
51
180.1859362
0
ARC
8
DEFAULT_255_1_234
10
23.9356911
20
28.7694733
40
0.2704083
50
179.515471
51
193.6466734
0
ARC
8
DEFAULT_255_1_234
10
23.854068
20
28.7486777
40
0.1861855
50
193.3540587
51
225.8256931
0
ARC
8
DEFAULT_255_1_234
10
23.8581437
20
28.7557524
40
0.1941102
50
226.418029
51
255.8553723
0
ARC
8
DEFAULT_255_1_234
10
23.883787
20
28.8493998
40
0.2911917
50
255.4655572
51
268.7985967
0
ARC
8
DEFAULT_255_1_234
10
23.8885062
20
28.9332491
40
0.3751331
50
268.3464808
51
270.0104874
0
ARC
8
DEFAULT_255_1_234
10
23.890845
20
28.8648138
40
0.3067064
50
269.575914
51
282.0823146
0
ARC
8
DEFAULT_255_1_234
10
23.9133359
20
28.7653803
40
0.2047712
50
281.7522535
51
306.6056425
0
ARC
8
DEFAULT_255_1_234
10
23.9231785
20
28.7492487
40
0.1859604
50
307.1350025
51
314.0277951
0
ARC
8
DEFAULT_255_1_234
10
23.9195869
20
28.7518766
40
0.1903475
50
314.2553419
51
350.169324
0
ARC
8
DEFAULT_255_1_234
10
23.8344338
20
28.7703409
40
0.2774269
50
349.4145679
51
0.2930737
0
ARC
8
DEFAULT_255_1_234
10
23.8864771
20
29.2862353
40
0.2300764
50
89.477591
51
105.729794
0
ARC
8
DEFAULT_255_1_234
10
23.8728684
20
29.3367637
40
0.1777519
50
105.922966
51
135.1662921
0
ARC
8
DEFAULT_255_1_234
10
23.8749187
20
29.3353419
40
0.1802087
50
135.3053131
51
168.9882338
0
ARC
8
DEFAULT_255_1_234
10
23.9576759
20
29.3163721
40
0.2650806
50
168.3802067
51
180.3602358
0
ARC
8
DEFAULT_255_1_234
10
23.9348339
20
29.3126041
40
0.2422425
50
179.5029707
51
194.9126783
0
ARC
8
DEFAULT_255_1_234
10
23.8763
20
29.297211
40
0.1817188
50
194.9722181
51
224.1943972
0
ARC
8
DEFAULT_255_1_234
10
23.8734867
20
29.2949169
40
0.1781027
50
224.2961434
51
262.0157375
0
ARC
8
DEFAULT_255_1_234
10
23.887711
20
29.3680661
40
0.2525492
50
261.1250369
51
270.1959853
0
ARC
8
DEFAULT_255_1_234
10
23.8906865
20
29.3493339
40
0.233825
50
269.4825617
51
285.0988277
0
ARC
8
DEFAULT_255_1_234
10
23.9061024
20
29.291499
40
0.1739712
50
285.1585659
51
315.9484648
0
ARC
8
DEFAULT_255_1_234
10
23.8972036
20
29.2996886
40
0.1860616
50
316.0412958
51
351.9162715
0
ARC
8
DEFAULT_255_1_234
10
23.8238991
20
29.3138245
40
0.2606517
50
351.1056823
51
0.1936567
0
ARC
8
DEFAULT_255_1_234
10
23.850182
20
29.3168369
40
0.234377
50
359.4789506
51
16.0679113
0
ARC
8
DEFAULT_255_1_234
10
23.8977779
20
29.329681
40
0.1850875
50
16.3251951
51
44.791304
0
ARC
8
DEFAULT_255_1_234
10
23.896006
20
29.3297339
40
0.186312
50
44.3958661
51
88.2498933
0
ARC
8
DEFAULT_255_1_234
10
23.8886614
20
29.2686154
40
0.2476868
50
86.9833827
51
90.0200148
0
LINE
8
DEFAULT_255_1_234
10
23.0886137
20
37.5654433
11
23.0886137
21
36.3904
0
LINE
8
DEFAULT_255_1_234
10
23.0886137
20
36.3904
11
22.9392234
21
36.3904
0
LINE
8
DEFAULT_255_1_234
10
22.9392234
20
36.3904
11
22.9392234
21
37.3807133
0
LINE
8
DEFAULT_255_1_234
10
22.9392234
20
37.3807133
11
22.6396396
21
37.2706785
0
LINE
8
DEFAULT_255_1_234
10
22.6396396
20
37.2706785
11
22.6396396
21
37.4056117
0
LINE
8
DEFAULT_255_1_234
10
22.6396396
20
37.4056117
11
23.0653217
21
37.5654433
0
LINE
8
DEFAULT_255_1_234
10
23.0653217
20
37.5654433
11
23.0886137
21
37.5654433
0
LINE
8
DEFAULT_255_1_234
10
24.2789173
20
37.5598211
11
24.2789173
21
37.476291
0
LINE
8
DEFAULT_255_1_234
10
24.2789173
20
37.476291
11
23.7946035
21
36.3904
0
LINE
8
DEFAULT_255_1_234
10
23.7946035
20
36.3904
11
23.6387878
21
36.3904
0
LINE
8
DEFAULT_255_1_234
10
23.6387878
20
36.3904
11
24.1214953
21
37.4377387
0
LINE
8
DEFAULT_255_1_234
10
24.1214953
20
37.4377387
11
23.4885943
21
37.4377387
0
LINE
8
DEFAULT_255_1_234
10
23.4885943
20
37.4377387
11
23.4885943
21
37.5598211
0
LINE
8
DEFAULT_255_1_234
10
23.4885943
20
37.5598211
11
24.2789173
21
37.5598211
0
LINE
8
DEFAULT_255_1_234
10
23.0886137
20
45.5029433
11
23.0886137
21
44.3279
0
LINE
8
DEFAULT_255_1_234
10
23.0886137
20
44.3279
11
22.9392234
21
44.3279
0
LINE
8
DEFAULT_255_1_234
10
22.9392234
20
44.3279
11
22.9392234
21
45.3182133
0
LINE
8
DEFAULT_255_1_234
10
22.9392234
20
45.3182133
11
22.6396396
21
45.2081785
0
LINE
8
DEFAULT_255_1_234
10
22.6396396
20
45.2081785
11
22.6396396
21
45.3431117
0
LINE
8
DEFAULT_255_1_234
10
22.6396396
20
45.3431117
11
23.0653217
21
45.5029433
0
LINE
8
DEFAULT_255_1_234
10
23.0653217
20
45.5029433
11
23.0886137
21
45.5029433
0
LINE
8
DEFAULT_255_1_234
10
24.0805334
20
45.4981243
11
24.1070381
21
45.4981243
0
LINE
8
DEFAULT_255_1_234
10
24.1070381
20
45.4981243
11
24.1070381
21
45.372026
0
LINE
8
DEFAULT_255_1_234
10
24.1070381
20
45.372026
11
24.0797302
21
45.372026
0
LINE
8
DEFAULT_255_1_234
10
23.5327688
20
44.7728583
11
23.5327688
21
44.8298836
0
LINE
8
DEFAULT_255_1_234
10
23.6821592
20
44.8106075
11
23.6821592
21
44.7559917
0
ARC
8
DEFAULT_255_1_234
10
24.084965
20
44.8722455
40
0.4998079
50
90.6001036
51
104.514704
0
ARC
8
DEFAULT_255_1_234
10
24.0461166
20
45.0167131
40
0.3502176
50
104.2855254
51
133.862935
0
ARC
8
DEFAULT_255_1_234
10
24.0624923
20
45.005883
40
0.3693984
50
134.5302688
51
161.6210873
0
ARC
8
DEFAULT_255_1_234
10
24.2278112
20
44.9475895
40
0.5446739
50
161.2849839
51
174.2076652
0
ARC
8
DEFAULT_255_1_234
10
24.3685049
20
44.9281787
40
0.6866274
50
173.7810589
51
174.9254635
0
ARC
8
DEFAULT_255_1_234
10
23.9134881
20
44.7898839
40
0.3033419
50
95.8330959
51
138.9954921
0
ARC
8
DEFAULT_255_1_234
10
23.9358237
20
44.6620375
40
0.4328947
50
89.8753725
51
97.0544009
0
ARC
8
DEFAULT_255_1_234
10
23.9405703
20
44.7455748
40
0.3493769
50
71.6407809
51
90.6240094
0
ARC
8
DEFAULT_255_1_234
10
23.9556276
20
44.8010082
40
0.2920396
50
39.6367836
51
71.019018
0
ARC
8
DEFAULT_255_1_234
10
23.8919749
20
44.7459998
40
0.3761538
50
10.658731
51
39.9043955
0
ARC
8
DEFAULT_255_1_234
10
23.7371832
20
44.7123686
40
0.5345136
50
359.682601
51
11.132623
0
ARC
8
DEFAULT_255_1_234
10
23.7331963
20
44.705301
40
0.5385081
50
347.2486944
51
0.4369317
0
ARC
8
DEFAULT_255_1_234
10
23.899944
20
44.6651807
40
0.3670249
50
318.1409698
51
347.6118597
0
ARC
8
DEFAULT_255_1_234
10
23.9324433
20
44.6384702
40
0.3250007
50
275.6342139
51
317.8248465
0
ARC
8
DEFAULT_255_1_234
10
23.9103544
20
44.7684219
40
0.4565864
50
269.8874292
51
276.7917694
0
ARC
8
DEFAULT_255_1_234
10
23.9048615
20
44.6658743
40
0.3540676
50
246.9140195
51
270.7437342
0
ARC
8
DEFAULT_255_1_234
10
23.9055005
20
44.6516384
40
0.3412781
50
218.1665114
51
245.878116
0
ARC
8
DEFAULT_255_1_234
10
23.9934466
20
44.7252279
40
0.455911
50
191.4115814
51
218.6077802
0
ARC
8
DEFAULT_255_1_234
10
24.1872555
20
44.7686833
40
0.6545001
50
179.6345085
51
191.7836486
0
ARC
8
DEFAULT_255_1_234
10
24.7454892
20
44.8365697
40
1.2127388
50
171.4525249
51
180.3158839
0
ARC
8
DEFAULT_255_1_234
10
24.3059768
20
44.9049608
40
0.7679464
50
157.9802646
51
171.6246686
0
ARC
8
DEFAULT_255_1_234
10
24.0845789
20
44.9932421
40
0.5296008
50
141.4298019
51
157.854097
0
ARC
8
DEFAULT_255_1_234
10
24.0204109
20
45.0386381
40
0.4511509
50
102.8715806
51
140.8564722
0
ARC
8
DEFAULT_255_1_234
10
24.0851725
20
44.7946552
40
0.7034845
50
90.3778349
51
103.5869322
0
ARC
8
DEFAULT_255_1_234
10
23.9113501
20
44.734173
40
0.2370698
50
89.8751008
51
126.2071704
0
ARC
8
DEFAULT_255_1_234
10
23.9159291
20
44.7187303
40
0.2522934
50
124.9745049
51
144.895901
0
ARC
8
DEFAULT_255_1_234
10
23.8983481
20
44.733056
40
0.2296779
50
145.2974905
51
160.2660252
0
ARC
8
DEFAULT_255_1_234
10
24.205602
20
44.7528071
40
0.5234525
50
179.6514266
51
190.2855912
0
ARC
8
DEFAULT_255_1_234
10
24.0362157
20
44.7208786
40
0.3510893
50
190.0945431
51
207.5098196
0
ARC
8
DEFAULT_255_1_234
10
23.9796427
20
44.6939623
40
0.288489
50
207.9583163
51
216.3251085
0
ARC
8
DEFAULT_255_1_234
10
23.9456535
20
44.6660105
40
0.2445587
50
215.7661442
51
232.5456785
0
ARC
8
DEFAULT_255_1_234
10
23.9073518
20
44.6173482
40
0.1826382
50
232.8005391
51
270.6605633
0
ARC
8
DEFAULT_255_1_234
10
23.9119219
20
44.6537612
40
0.2190529
50
269.35537
51
288.4744281
0
ARC
8
DEFAULT_255_1_234
10
23.9212116
20
44.6188118
40
0.1829749
50
289.1833337
51
322.9683818
0
ARC
8
DEFAULT_255_1_234
10
23.8600638
20
44.6670391
40
0.2608399
50
322.6007884
51
346.5182367
0
ARC
8
DEFAULT_255_1_234
10
23.7443234
20
44.6965616
40
0.3802777
50
346.2582162
51
358.7741648
0
ARC
8
DEFAULT_255_1_234
10
23.6424903
20
44.7020965
40
0.4822176
50
358.3755224
51
0.0098023
0
ARC
8
DEFAULT_255_1_234
10
23.718109
20
44.7048657
40
0.4066078
50
359.6214041
51
11.2839074
0
ARC
8
DEFAULT_255_1_234
10
23.8458237
20
44.7315066
40
0.2761514
50
11.0482309
51
31.8146458
0
ARC
8
DEFAULT_255_1_234
10
23.876728
20
44.7482584
40
0.2410679
50
32.3035391
51
38.082671
0
ARC
8
DEFAULT_255_1_234
10
23.918794
20
44.7863662
40
0.1844966
50
36.825067
51
85.7415724
0
ARC
8
DEFAULT_255_1_234
10
23.9120773
20
44.7363301
40
0.2349122
50
85.0140713
51
90.0513278
0
LINE
8
DEFAULT_255_1_234
10
23.187485
20
52.9079391
11
23.187485
21
52.7818408
0
LINE
8
DEFAULT_255_1_234
10
23.187485
20
52.7818408
11
22.6967458
21
52.7818408
0
LINE
8
DEFAULT_255_1_234
10
22.6967458
20
52.7818408
11
22.6967458
21
52.2654
0
LINE
8
DEFAULT_255_1_234
10
22.6967458
20
52.2654
11
22.5425364
21
52.2654
0
LINE
8
DEFAULT_255_1_234
10
22.5425364
20
52.2654
11
22.5425364
21
53.4348211
0
LINE
8
DEFAULT_255_1_234
10
22.5425364
20
53.4348211
11
23.2669992
21
53.4348211
0
LINE
8
DEFAULT_255_1_234
10
23.2669992
20
53.4348211
11
23.2669992
21
53.3079196
0
LINE
8
DEFAULT_255_1_234
10
23.2669992
20
53.3079196
11
22.6967458
21
53.3079196
0
LINE
8
DEFAULT_255_1_234
10
22.6967458
20
53.3079196
11
22.6967458
21
52.9079391
0
LINE
8
DEFAULT_255_1_234
10
22.6967458
20
52.9079391
11
23.187485
21
52.9079391
0
LINE
8
DEFAULT_255_1_234
10
24.1127412
20
52.9320343
11
24.1127412
21
52.805936
0
LINE
8
DEFAULT_255_1_234
10
24.1127412
20
52.805936
11
23.6059385
21
52.805936
0
LINE
8
DEFAULT_255_1_234
10
23.6059385
20
52.805936
11
23.6059385
21
52.3914983
0
LINE
8
DEFAULT_255_1_234
10
23.6059385
20
52.3914983
11
24.1946649
21
52.3914983
0
LINE
8
DEFAULT_255_1_234
10
24.1946649
20
52.3914983
11
24.1946649
21
52.2654
0
LINE
8
DEFAULT_255_1_234
10
24.1946649
20
52.2654
11
23.4517292
21
52.2654
0
LINE
8
DEFAULT_255_1_234
10
23.4517292
20
52.2654
11
23.4517292
21
53.4348211
0
LINE
8
DEFAULT_255_1_234
10
23.4517292
20
53.4348211
11
24.1866332
21
53.4348211
0
LINE
8
DEFAULT_255_1_234
10
24.1866332
20
53.4348211
11
24.1866332
21
53.3079196
0
LINE
8
DEFAULT_255_1_234
10
24.1866332
20
53.3079196
11
23.6059385
21
53.3079196
0
LINE
8
DEFAULT_255_1_234
10
23.6059385
20
53.3079196
11
23.6059385
21
52.9320343
0
LINE
8
DEFAULT_255_1_234
10
23.6059385
20
52.9320343
11
24.1127412
21
52.9320343
0
LINE
8
DEFAULT_255_1_234
10
23.1656817
20
60.8944327
11
23.1656817
21
60.7016709
0
LINE
8
DEFAULT_255_1_234
10
22.427565
20
60.6815916
11
22.427565
21
60.8799755
0
LINE
8
DEFAULT_255_1_234
10
23.0170946
20
60.6615123
11
23.0170946
21
60.9048739
0
LINE
8
DEFAULT_255_1_234
10
22.5761521
20
60.9161184
11
22.5761521
21
60.6783789
0
ARC
8
DEFAULT_255_1_234
10
21.9409707
20
60.6967805
40
1.2247208
50
353.8441951
51
0.2287902
0
ARC
8
DEFAULT_255_1_234
10
22.4049211
20
60.6449806
40
0.7578929
50
344.4934747
51
353.9765454
0
ARC
8
DEFAULT_255_1_234
10
22.7041801
20
60.5598981
40
0.4467846
50
329.2803592
51
344.7472793
0
ARC
8
DEFAULT_255_1_234
10
22.8034626
20
60.5054018
40
0.3336173
50
324.9352394
51
328.6160465
0
ARC
8
DEFAULT_255_1_234
10
22.8411734
20
60.4790427
40
0.2876076
50
280.580143
51
324.9173126
0
ARC
8
DEFAULT_255_1_234
10
22.8010527
20
60.6461099
40
0.4592847
50
269.5977311
51
281.6734359
0
ARC
8
DEFAULT_255_1_234
10
22.7938433
20
60.6341173
40
0.4472986
50
256.6228859
51
270.51044
0
ARC
8
DEFAULT_255_1_234
10
22.753641
20
60.4792877
40
0.2873874
50
215.8618325
51
257.2788573
0
ARC
8
DEFAULT_255_1_234
10
22.8557442
20
60.5477977
40
0.4102928
50
197.9693508
51
215.2623606
0
ARC
8
DEFAULT_255_1_234
10
23.1042558
20
60.6316709
40
0.6725652
50
187.8816417
51
198.2346507
0
ARC
8
DEFAULT_255_1_234
10
23.5000766
20
60.6888079
40
1.0724845
50
180.8976217
51
188.0055519
0
ARC
8
DEFAULT_255_1_234
10
23.7800954
20
60.6991777
40
1.3526448
50
180.7449369
51
181.1510016
0
ARC
8
DEFAULT_255_1_234
10
23.6223683
20
60.8848042
40
1.1948131
50
173.7675579
51
180.231553
0
ARC
8
DEFAULT_255_1_234
10
23.170583
20
60.9358666
40
0.7401564
50
164.3058563
51
173.9002247
0
ARC
8
DEFAULT_255_1_234
10
22.8793899
20
61.0197656
40
0.4371288
50
148.7922025
51
164.568378
0
ARC
8
DEFAULT_255_1_234
10
22.7842351
20
61.0728929
40
0.3282386
50
144.5883898
51
148.1176286
0
ARC
8
DEFAULT_255_1_234
10
22.7499249
20
61.0968315
40
0.2864044
50
101.6440918
51
144.514236
0
ARC
8
DEFAULT_255_1_234
10
22.7924315
20
60.9279069
40
0.4604934
50
89.5284041
51
102.5819763
0
ARC
8
DEFAULT_255_1_234
10
22.8003403
20
60.9240018
40
0.464401
50
77.0437873
51
90.5081339
0
ARC
8
DEFAULT_255_1_234
10
22.8405405
20
61.0882615
40
0.2953195
50
48.2778575
51
77.4994676
0
ARC
8
DEFAULT_255_1_234
10
22.8478036
20
61.1011746
40
0.2808655
50
36.3142134
51
47.6305865
0
ARC
8
DEFAULT_255_1_234
10
22.7609343
20
61.0426515
40
0.3855453
50
18.2931786
51
35.6769206
0
ARC
8
DEFAULT_255_1_234
10
22.5066102
20
60.9553593
40
0.654423
50
8.024666
51
18.5605216
0
ARC
8
DEFAULT_255_1_234
10
22.0903022
20
60.8938792
40
1.0752407
50
1.1274072
51
8.1718305
0
ARC
8
DEFAULT_255_1_234
10
21.7667213
20
60.8811885
40
1.3990231
50
0.5424119
51
1.3863029
0
ARC
8
DEFAULT_255_1_234
10
21.948859
20
60.9084342
40
1.0682415
50
359.8090433
51
4.9407866
0
ARC
8
DEFAULT_255_1_234
10
22.3698604
20
60.9460113
40
0.6455691
50
4.8362157
51
12.2904523
0
ARC
8
DEFAULT_255_1_234
10
22.6453719
20
61.0073965
40
0.3633074
50
12.0805627
51
23.8173984
0
ARC
8
DEFAULT_255_1_234
10
22.7627425
20
61.0570919
40
0.2358723
50
24.2871213
51
31.3935614
0
ARC
8
DEFAULT_255_1_234
10
22.8152122
20
61.0914233
40
0.1732111
50
30.7407893
51
82.4657128
0
ARC
8
DEFAULT_255_1_234
10
22.7972256
20
61.0030691
40
0.263235
50
81.1060089
51
90.2184952
0
ARC
8
DEFAULT_255_1_234
10
22.7936555
20
61.0288924
40
0.2374236
50
89.3806855
51
105.6762551
0
ARC
8
DEFAULT_255_1_234
10
22.7753186
20
61.0955567
40
0.1682847
50
105.7981136
51
149.7388061
0
ARC
8
DEFAULT_255_1_234
10
22.8817264
20
61.031595
40
0.2924306
50
149.4208916
51
163.6286378
0
ARC
8
DEFAULT_255_1_234
10
23.0908152
20
60.967825
40
0.5110213
50
163.3763315
51
172.1410975
0
ARC
8
DEFAULT_255_1_234
10
23.4208871
20
60.9205518
40
0.8444586
50
172.0259487
51
178.0703232
0
ARC
8
DEFAULT_255_1_234
10
23.723896
20
60.9061906
40
1.1477868
50
177.8631668
51
179.5044149
0
ARC
8
DEFAULT_255_1_234
10
23.6166365
20
60.6747389
40
1.0404907
50
179.7995573
51
185.2460446
0
ARC
8
DEFAULT_255_1_234
10
23.2123404
20
60.6364513
40
0.6343885
50
185.1411642
51
193.0079639
0
ARC
8
DEFAULT_255_1_234
10
22.9479877
20
60.5739641
40
0.3627568
50
192.7897626
51
205.2507664
0
ARC
8
DEFAULT_255_1_234
10
22.8433424
20
60.5272415
40
0.2481908
50
205.8005384
51
211.2537509
0
ARC
8
DEFAULT_255_1_234
10
22.7909864
20
60.492158
40
0.1852521
50
210.3789793
51
238.4008143
0
ARC
8
DEFAULT_255_1_234
10
22.7890386
20
60.4968376
40
0.1882621
50
239.6520629
51
265.9793761
0
ARC
8
DEFAULT_255_1_234
10
22.7975586
20
60.5640427
40
0.2559272
50
265.1315437
51
270.060332
0
ARC
8
DEFAULT_255_1_234
10
22.8004365
20
60.5316534
40
0.2235528
50
269.3314664
51
287.2178029
0
ARC
8
DEFAULT_255_1_234
10
22.8142217
20
60.4813279
40
0.1714108
50
287.7958004
51
329.080874
0
ARC
8
DEFAULT_255_1_234
10
22.7184674
20
60.541093
40
0.2842745
50
328.6634704
51
343.3325132
0
ARC
8
DEFAULT_255_1_234
10
22.5011694
20
60.6087863
40
0.5118644
50
343.0499468
51
351.9393422
0
ARC
8
DEFAULT_255_1_234
10
22.1544994
20
60.6598949
40
0.8622784
50
351.8069023
51
357.7959224
0
ARC
8
DEFAULT_255_1_234
10
21.830955
20
60.6766721
40
1.1862365
50
357.5871873
51
359.2677531
0
LINE
8
DEFAULT_255_1_234
10
23.4492021
20
61.3723211
11
23.7817161
21
60.4077093
0
LINE
8
DEFAULT_255_1_234
10
23.7817161
20
60.4077093
11
24.1158364
21
61.3723211
0
LINE
8
DEFAULT_255_1_234
10
24.1158364
20
61.3723211
11
24.2845029
21
61.3723211
0
LINE
8
DEFAULT_255_1_234
10
24.2845029
20
61.3723211
11
23.850789
21
60.2029
0
LINE
8
DEFAULT_255_1_234
10
23.850789
20
60.2029
11
23.7142495
21
60.2029
0
LINE
8
DEFAULT_255_1_234
10
23.7142495
20
60.2029
11
23.2813388
21
61.3723211
0
LINE
8
DEFAULT_255_1_234
10
23.2813388
20
61.3723211
11
23.4492021
21
61.3723211
0
ENDSEC
0
EOF