0
SECTION
2
HEADER
9
$MEASUREMENT
70
1
0
ENDSEC
0
SECTION
2
TABLES
0
TABLE
2
LTYPE
0
LTYPE
72
65
70
64
2
CONTINUOUS
3
______
73
0
40
0
0
ENDTAB
0
TABLE
2
LAYER
0
LAYER
2
DEFAULT_255_2_778
70
0
62
255
6
CONTINUOUS
0
LAYER
2
DEFAULT_255_1_234
70
0
62
255
6
CONTINUOUS
0
ENDTAB
0
ENDSEC
0
SECTION
2
ENTITIES
0
ARC
8
DEFAULT_255_2_778
10
3.5700693
20
171.0552017
40
0.7914215
50
129.1312896
51
180.1450914
0
ARC
8
DEFAULT_255_2_778
10
3.5703345
20
171.0556888
40
0.7912112
50
89.854026
51
129.1684493
0
ARC
8
DEFAULT_255_2_778
10
25.7993937
20
171.0553754
40
0.7915249
50
39.4792447
51
90.147911
0
ARC
8
DEFAULT_255_2_778
10
25.7999935
20
171.055222
40
0.7911595
50
359.8533901
51
39.5154338
0
ARC
8
DEFAULT_255_2_778
10
25.7996693
20
-1.9863506
40
0.7914836
50
309.4761667
51
0.1482649
0
ARC
8
DEFAULT_255_2_778
10
25.799398
20
-1.9867816
40
0.7913235
50
269.8517415
51
309.511178
0
ARC
8
DEFAULT_255_2_778
10
3.570342
20
-1.9867235
40
0.7913815
50
219.1282118
51
270.1454017
0
ARC
8
DEFAULT_255_2_778
10
3.5700247
20
-1.986341
40
0.7913769
50
179.8524075
51
219.1641908
0
LINE
8
DEFAULT_255_2_778
10
3.5723503
20
171.8468976
11
25.7973503
21
171.8468976
0
LINE
8
DEFAULT_255_2_778
10
26.5911503
20
171.0531976
11
26.5911503
21
-1.9843024
0
LINE
8
DEFAULT_255_2_778
10
25.7973503
20
-2.7781024
11
3.5723503
21
-2.7781024
0
LINE
8
DEFAULT_255_2_778
10
2.7786503
20
-1.9843024
11
2.7786503
21
171.0531976
0
LINE
8
DEFAULT_255_1_234
10
11.2042484
20
0.0153343
11
11.2042484
21
-0.110764
0
LINE
8
DEFAULT_255_1_234
10
11.2042484
20
-0.110764
11
10.6974458
21
-0.110764
0
LINE
8
DEFAULT_255_1_234
10
10.6974458
20
-0.110764
11
10.6974458
21
-0.5252017
0
LINE
8
DEFAULT_255_1_234
10
10.6974458
20
-0.5252017
11
11.2861722
21
-0.5252017
0
LINE
8
DEFAULT_255_1_234
10
11.2861722
20
-0.5252017
11
11.2861722
21
-0.6513
0
LINE
8
DEFAULT_255_1_234
10
11.2861722
20
-0.6513
11
10.5432364
21
-0.6513
0
LINE
8
DEFAULT_255_1_234
10
10.5432364
20
-0.6513
11
10.5432364
21
0.5181211
0
LINE
8
DEFAULT_255_1_234
10
10.5432364
20
0.5181211
11
11.2781404
21
0.5181211
0
LINE
8
DEFAULT_255_1_234
10
11.2781404
20
0.5181211
11
11.2781404
21
0.3912196
0
LINE
8
DEFAULT_255_1_234
10
11.2781404
20
0.3912196
11
10.6974458
21
0.3912196
0
LINE
8
DEFAULT_255_1_234
10
10.6974458
20
0.3912196
11
10.6974458
21
0.0153343
0
LINE
8
DEFAULT_255_1_234
10
10.6974458
20
0.0153343
11
11.2042484
21
0.0153343
0
LINE
8
DEFAULT_255_1_234
10
12.3768822
20
0.5181211
11
12.3768822
21
-0.6513
0
LINE
8
DEFAULT_255_1_234
10
12.3768822
20
-0.6513
11
12.2218697
21
-0.6513
0
LINE
8
DEFAULT_255_1_234
10
12.2218697
20
-0.6513
11
12.2218697
21
-0.110764
0
LINE
8
DEFAULT_255_1_234
10
12.2218697
20
-0.110764
11
11.6323401
21
-0.110764
0
LINE
8
DEFAULT_255_1_234
10
11.6323401
20
-0.110764
11
11.6323401
21
-0.6513
0
LINE
8
DEFAULT_255_1_234
10
11.6323401
20
-0.6513
11
11.4781307
21
-0.6513
0
LINE
8
DEFAULT_255_1_234
10
11.4781307
20
-0.6513
11
11.4781307
21
0.5181211
0
LINE
8
DEFAULT_255_1_234
10
11.4781307
20
0.5181211
11
11.6323401
21
0.5181211
0
LINE
8
DEFAULT_255_1_234
10
11.6323401
20
0.5181211
11
11.6323401
21
0.0153343
0
LINE
8
DEFAULT_255_1_234
10
11.6323401
20
0.0153343
11
12.2218697
21
0.0153343
0
LINE
8
DEFAULT_255_1_234
10
12.2218697
20
0.0153343
11
12.2218697
21
0.5181211
0
LINE
8
DEFAULT_255_1_234
10
12.2218697
20
0.5181211
11
12.3768822
21
0.5181211
0
LINE
8
DEFAULT_255_1_234
10
12.9366944
20
-0.0938974
11
12.9366944
21
-0.2151766
0
LINE
8
DEFAULT_255_1_234
10
12.9366944
20
-0.2151766
11
12.5447456
21
-0.2151766
0
LINE
8
DEFAULT_255_1_234
10
12.5447456
20
-0.2151766
11
12.5447456
21
-0.0938974
0
LINE
8
DEFAULT_255_1_234
10
12.5447456
20
-0.0938974
11
12.9366944
21
-0.0938974
0
LINE
8
DEFAULT_255_1_234
10
13.4282368
20
-0.6513
11
13.1045577
21
-0.6513
0
LINE
8
DEFAULT_255_1_234
10
13.1045577
20
-0.6513
11
13.1045577
21
0.5181211
0
LINE
8
DEFAULT_255_1_234
10
13.1045577
20
0.5181211
11
13.4346622
21
0.5181211
0
LINE
8
DEFAULT_255_1_234
10
13.9502998
20
-0.0272339
11
13.9502998
21
-0.1019291
0
LINE
8
DEFAULT_255_1_234
10
13.438678
20
0.3912196
11
13.2587671
21
0.3912196
0
LINE
8
DEFAULT_255_1_234
10
13.2587671
20
0.3912196
11
13.2587671
21
-0.5252017
0
LINE
8
DEFAULT_255_1_234
10
13.2587671
20
-0.5252017
11
13.4210082
21
-0.5252017
0
LINE
8
DEFAULT_255_1_234
10
13.7976967
20
-0.0987164
11
13.7976967
21
-0.0304466
0
ARC
8
DEFAULT_255_1_234
10
13.4385564
20
-0.0684106
40
0.5865446
50
75.4101064
51
90.3804066
0
ARC
8
DEFAULT_255_1_234
10
13.4615078
20
0.0272492
40
0.4881916
50
60.145586
51
75.1888407
0
ARC
8
DEFAULT_255_1_234
10
13.4773853
20
0.0549199
40
0.4562893
50
26.5253612
51
60.1450928
0
ARC
8
DEFAULT_255_1_234
10
13.3653602
20
-0.0044842
40
0.5830602
50
7.4030428
51
26.8320788
0
ARC
8
DEFAULT_255_1_234
10
13.2059359
20
-0.0293196
40
0.7443669
50
0.1605367
51
7.7176192
0
ARC
8
DEFAULT_255_1_234
10
13.2223264
20
-0.1057566
40
0.7279835
50
348.7289388
51
0.3012466
0
ARC
8
DEFAULT_255_1_234
10
13.3879694
20
-0.1386614
40
0.559104
50
333.0706509
51
348.7181832
0
ARC
8
DEFAULT_255_1_234
10
13.4846452
20
-0.1911681
40
0.4491417
50
299.2531685
51
333.4571258
0
ARC
8
DEFAULT_255_1_234
10
13.4485591
20
-0.1226172
40
0.5265881
50
278.107187
51
299.0339503
0
ARC
8
DEFAULT_255_1_234
10
13.422967
20
0.0281216
40
0.679442
50
270.4443897
51
278.4511052
0
ARC
8
DEFAULT_255_1_234
10
13.42505
20
-0.0647787
40
0.4604407
50
269.4970433
51
284.0205042
0
ARC
8
DEFAULT_255_1_234
10
13.4605801
20
-0.2013022
40
0.3193797
50
283.7700273
51
318.1555492
0
ARC
8
DEFAULT_255_1_234
10
13.4268559
20
-0.1760633
40
0.3613588
50
318.7415601
51
343.6873628
0
ARC
8
DEFAULT_255_1_234
10
13.2464583
20
-0.1197168
40
0.5503313
50
343.3325091
51
355.8548958
0
ARC
8
DEFAULT_255_1_234
10
13.0366267
20
-0.0997681
40
0.7610708
50
355.4988528
51
0.0791727
0
ARC
8
DEFAULT_255_1_234
10
13.114889
20
-0.026222
40
0.6828208
50
359.6455037
51
9.8607896
0
ARC
8
DEFAULT_255_1_234
10
13.3509587
20
0.0164099
40
0.4429406
50
9.6571907
51
26.1932807
0
ARC
8
DEFAULT_255_1_234
10
13.4437576
20
0.0595118
40
0.3406537
50
26.5777228
51
40.1532208
0
ARC
8
DEFAULT_255_1_234
10
13.4693303
20
0.0794619
40
0.308246
50
40.3840491
51
80.1431104
0
ARC
8
DEFAULT_255_1_234
10
13.436642
20
-0.0654667
40
0.4566909
50
79.2152159
51
89.7445637
0
LINE
8
DEFAULT_255_1_234
10
14.6329975
20
0.5237433
11
14.6329975
21
-0.6513
0
LINE
8
DEFAULT_255_1_234
10
14.6329975
20
-0.6513
11
14.4836072
21
-0.6513
0
LINE
8
DEFAULT_255_1_234
10
14.4836072
20
-0.6513
11
14.4836072
21
0.3390133
0
LINE
8
DEFAULT_255_1_234
10
14.4836072
20
0.3390133
11
14.1840233
21
0.2289785
0
LINE
8
DEFAULT_255_1_234
10
14.1840233
20
0.2289785
11
14.1840233
21
0.3639117
0
LINE
8
DEFAULT_255_1_234
10
14.1840233
20
0.3639117
11
14.6097055
21
0.5237433
0
LINE
8
DEFAULT_255_1_234
10
14.6097055
20
0.5237433
11
14.6329975
21
0.5237433
0
LINE
8
DEFAULT_255_1_234
10
15.6249172
20
0.5189243
11
15.6514219
21
0.5189243
0
LINE
8
DEFAULT_255_1_234
10
15.6514219
20
0.5189243
11
15.6514219
21
0.392826
0
LINE
8
DEFAULT_255_1_234
10
15.6514219
20
0.392826
11
15.624114
21
0.392826
0
LINE
8
DEFAULT_255_1_234
10
15.0771526
20
-0.2063417
11
15.0771526
21
-0.1493164
0
LINE
8
DEFAULT_255_1_234
10
15.226543
20
-0.1685925
11
15.226543
21
-0.2232083
0
ARC
8
DEFAULT_255_1_234
10
15.6293488
20
-0.1069545
40
0.4998079
50
90.6001036
51
104.514704
0
ARC
8
DEFAULT_255_1_234
10
15.5905003
20
0.0375131
40
0.3502176
50
104.2855254
51
133.862935
0
ARC
8
DEFAULT_255_1_234
10
15.6068761
20
0.026683
40
0.3693984
50
134.5302688
51
161.6210873
0
ARC
8
DEFAULT_255_1_234
10
15.7721949
20
-0.0316105
40
0.5446739
50
161.2849839
51
174.2076652
0
ARC
8
DEFAULT_255_1_234
10
15.9128887
20
-0.0510213
40
0.6866274
50
173.7810589
51
174.9254635
0
ARC
8
DEFAULT_255_1_234
10
15.4578719
20
-0.1893161
40
0.3033419
50
95.8330959
51
138.9954921
0
ARC
8
DEFAULT_255_1_234
10
15.4802075
20
-0.3171625
40
0.4328947
50
89.8753725
51
97.0544009
0
ARC
8
DEFAULT_255_1_234
10
15.4849541
20
-0.2336252
40
0.3493769
50
71.6407809
51
90.6240094
0
ARC
8
DEFAULT_255_1_234
10
15.5000114
20
-0.1781918
40
0.2920396
50
39.6367836
51
71.019018
0
ARC
8
DEFAULT_255_1_234
10
15.4363587
20
-0.2332002
40
0.3761538
50
10.658731
51
39.9043955
0
ARC
8
DEFAULT_255_1_234
10
15.281567
20
-0.2668314
40
0.5345136
50
359.682601
51
11.132623
0
ARC
8
DEFAULT_255_1_234
10
15.2775801
20
-0.273899
40
0.5385081
50
347.2486944
51
0.4369317
0
ARC
8
DEFAULT_255_1_234
10
15.4443278
20
-0.3140193
40
0.3670249
50
318.1409698
51
347.6118597
0
ARC
8
DEFAULT_255_1_234
10
15.4768271
20
-0.3407298
40
0.3250007
50
275.6342139
51
317.8248465
0
ARC
8
DEFAULT_255_1_234
10
15.4547382
20
-0.2107781
40
0.4565864
50
269.8874292
51
276.7917694
0
ARC
8
DEFAULT_255_1_234
10
15.4492453
20
-0.3133257
40
0.3540676
50
246.9140195
51
270.7437342
0
ARC
8
DEFAULT_255_1_234
10
15.4498843
20
-0.3275616
40
0.3412781
50
218.1665114
51
245.878116
0
ARC
8
DEFAULT_255_1_234
10
15.5378304
20
-0.2539721
40
0.455911
50
191.4115814
51
218.6077802
0
ARC
8
DEFAULT_255_1_234
10
15.7316393
20
-0.2105167
40
0.6545001
50
179.6345085
51
191.7836486
0
ARC
8
DEFAULT_255_1_234
10
16.289873
20
-0.1426303
40
1.2127388
50
171.4525249
51
180.3158839
0
ARC
8
DEFAULT_255_1_234
10
15.8503605
20
-0.0742392
40
0.7679464
50
157.9802646
51
171.6246686
0
ARC
8
DEFAULT_255_1_234
10
15.6289626
20
0.0140421
40
0.5296008
50
141.4298019
51
157.854097
0
ARC
8
DEFAULT_255_1_234
10
15.5647947
20
0.0594381
40
0.4511509
50
102.8715806
51
140.8564722
0
ARC
8
DEFAULT_255_1_234
10
15.6295563
20
-0.1845448
40
0.7034845
50
90.3778349
51
103.5869322
0
ARC
8
DEFAULT_255_1_234
10
15.4557339
20
-0.245027
40
0.2370698
50
89.8751008
51
126.2071704
0
ARC
8
DEFAULT_255_1_234
10
15.4603129
20
-0.2604697
40
0.2522934
50
124.9745049
51
144.895901
0
ARC
8
DEFAULT_255_1_234
10
15.4427319
20
-0.246144
40
0.2296779
50
145.2974905
51
160.2660252
0
ARC
8
DEFAULT_255_1_234
10
15.7499858
20
-0.2263929
40
0.5234525
50
179.6514266
51
190.2855912
0
ARC
8
DEFAULT_255_1_234
10
15.5805995
20
-0.2583214
40
0.3510893
50
190.0945431
51
207.5098196
0
ARC
8
DEFAULT_255_1_234
10
15.5240265
20
-0.2852377
40
0.288489
50
207.9583163
51
216.3251085
0
ARC
8
DEFAULT_255_1_234
10
15.4900373
20
-0.3131895
40
0.2445587
50
215.7661442
51
232.5456785
0
ARC
8
DEFAULT_255_1_234
10
15.4517356
20
-0.3618518
40
0.1826382
50
232.8005391
51
270.6605633
0
ARC
8
DEFAULT_255_1_234
10
15.4563057
20
-0.3254388
40
0.2190529
50
269.35537
51
288.4744281
0
ARC
8
DEFAULT_255_1_234
10
15.4655954
20
-0.3603882
40
0.1829749
50
289.1833337
51
322.9683818
0
ARC
8
DEFAULT_255_1_234
10
15.4044476
20
-0.3121609
40
0.2608399
50
322.6007884
51
346.5182367
0
ARC
8
DEFAULT_255_1_234
10
15.2887072
20
-0.2826384
40
0.3802777
50
346.2582162
51
358.7741648
0
ARC
8
DEFAULT_255_1_234
10
15.1868741
20
-0.2771035
40
0.4822176
50
358.3755224
51
0.0098023
0
ARC
8
DEFAULT_255_1_234
10
15.2624928
20
-0.2743343
40
0.4066078
50
359.6214041
51
11.2839074
0
ARC
8
DEFAULT_255_1_234
10
15.3902075
20
-0.2476934
40
0.2761514
50
11.0482309
51
31.8146458
0
ARC
8
DEFAULT_255_1_234
10
15.4211118
20
-0.2309416
40
0.2410679
50
32.3035391
51
38.082671
0
ARC
8
DEFAULT_255_1_234
10
15.4631778
20
-0.1928338
40
0.1844966
50
36.825067
51
85.7415724
0
ARC
8
DEFAULT_255_1_234
10
15.4564611
20
-0.2428699
40
0.2349122
50
85.0140713
51
90.0513278
0
LINE
8
DEFAULT_255_1_234
10
16.691532
20
0.0153343
11
16.691532
21
-0.110764
0
LINE
8
DEFAULT_255_1_234
10
16.691532
20
-0.110764
11
16.1847293
21
-0.110764
0
LINE
8
DEFAULT_255_1_234
10
16.1847293
20
-0.110764
11
16.1847293
21
-0.5252017
0
LINE
8
DEFAULT_255_1_234
10
16.1847293
20
-0.5252017
11
16.7734558
21
-0.5252017
0
LINE
8
DEFAULT_255_1_234
10
16.7734558
20
-0.5252017
11
16.7734558
21
-0.6513
0
LINE
8
DEFAULT_255_1_234
10
16.7734558
20
-0.6513
11
16.03052
21
-0.6513
0
LINE
8
DEFAULT_255_1_234
10
16.03052
20
-0.6513
11
16.03052
21
0.5181211
0
LINE
8
DEFAULT_255_1_234
10
16.03052
20
0.5181211
11
16.765424
21
0.5181211
0
LINE
8
DEFAULT_255_1_234
10
16.765424
20
0.5181211
11
16.765424
21
0.3912196
0
LINE
8
DEFAULT_255_1_234
10
16.765424
20
0.3912196
11
16.1847293
21
0.3912196
0
LINE
8
DEFAULT_255_1_234
10
16.1847293
20
0.3912196
11
16.1847293
21
0.0153343
0
LINE
8
DEFAULT_255_1_234
10
16.1847293
20
0.0153343
11
16.691532
21
0.0153343
0
LINE
8
DEFAULT_255_1_234
10
17.2890934
20
-0.6513
11
16.9654143
21
-0.6513
0
LINE
8
DEFAULT_255_1_234
10
16.9654143
20
-0.6513
11
16.9654143
21
0.5181211
0
LINE
8
DEFAULT_255_1_234
10
16.9654143
20
0.5181211
11
17.2955188
21
0.5181211
0
LINE
8
DEFAULT_255_1_234
10
17.8111563
20
-0.0272339
11
17.8111563
21
-0.1019291
0
LINE
8
DEFAULT_255_1_234
10
17.2995346
20
0.3912196
11
17.1196237
21
0.3912196
0
LINE
8
DEFAULT_255_1_234
10
17.1196237
20
0.3912196
11
17.1196237
21
-0.5252017
0
LINE
8
DEFAULT_255_1_234
10
17.1196237
20
-0.5252017
11
17.2818648
21
-0.5252017
0
LINE
8
DEFAULT_255_1_234
10
17.6585533
20
-0.0987164
11
17.6585533
21
-0.0304466
0
ARC
8
DEFAULT_255_1_234
10
17.299413
20
-0.0684106
40
0.5865446
50
75.4101064
51
90.3804066
0
ARC
8
DEFAULT_255_1_234
10
17.3223644
20
0.0272492
40
0.4881916
50
60.145586
51
75.1888407
0
ARC
8
DEFAULT_255_1_234
10
17.3382419
20
0.0549199
40
0.4562893
50
26.5253612
51
60.1450928
0
ARC
8
DEFAULT_255_1_234
10
17.2262168
20
-0.0044842
40
0.5830602
50
7.4030428
51
26.8320788
0
ARC
8
DEFAULT_255_1_234
10
17.0667925
20
-0.0293196
40
0.7443669
50
0.1605367
51
7.7176192
0
ARC
8
DEFAULT_255_1_234
10
17.0831829
20
-0.1057566
40
0.7279835
50
348.7289388
51
0.3012466
0
ARC
8
DEFAULT_255_1_234
10
17.248826
20
-0.1386614
40
0.559104
50
333.0706509
51
348.7181832
0
ARC
8
DEFAULT_255_1_234
10
17.3455018
20
-0.1911681
40
0.4491417
50
299.2531685
51
333.4571258
0
ARC
8
DEFAULT_255_1_234
10
17.3094157
20
-0.1226172
40
0.5265881
50
278.107187
51
299.0339503
0
ARC
8
DEFAULT_255_1_234
10
17.2838236
20
0.0281216
40
0.679442
50
270.4443897
51
278.4511052
0
ARC
8
DEFAULT_255_1_234
10
17.2859066
20
-0.0647787
40
0.4604407
50
269.4970433
51
284.0205042
0
ARC
8
DEFAULT_255_1_234
10
17.3214367
20
-0.2013022
40
0.3193797
50
283.7700273
51
318.1555492
0
ARC
8
DEFAULT_255_1_234
10
17.2877125
20
-0.1760633
40
0.3613588
50
318.7415601
51
343.6873628
0
ARC
8
DEFAULT_255_1_234
10
17.1073149
20
-0.1197168
40
0.5503313
50
343.3325091
51
355.8548958
0
ARC
8
DEFAULT_255_1_234
10
16.8974833
20
-0.0997681
40
0.7610708
50
355.4988528
51
0.0791727
0
ARC
8
DEFAULT_255_1_234
10
16.9757456
20
-0.026222
40
0.6828208
50
359.6455037
51
9.8607896
0
ARC
8
DEFAULT_255_1_234
10
17.2118153
20
0.0164099
40
0.4429406
50
9.6571907
51
26.1932807
0
ARC
8
DEFAULT_255_1_234
10
17.3046142
20
0.0595118
40
0.3406537
50
26.5777228
51
40.1532208
0
ARC
8
DEFAULT_255_1_234
10
17.3301868
20
0.0794619
40
0.308246
50
40.3840491
51
80.1431104
0
ARC
8
DEFAULT_255_1_234
10
17.2974986
20
-0.0654667
40
0.4566909
50
79.2152159
51
89.7445637
0
ARC
8
DEFAULT_255_2_778
10
31.9007682
20
169.4741699
40
11.0854885
50
180.0840769
51
180.110284
0
ARC
8
DEFAULT_255_2_778
10
262.6630055
20
169.8455943
40
241.8480246
50
180.0868647
51
180.0918473
0
ARC
8
DEFAULT_255_2_778
10
597.9520561
20
170.3544927
40
577.1374613
50
180.0830396
51
180.0869218
0
ARC
8
DEFAULT_255_2_778
10
669.2866106
20
170.4590648
40
648.4720924
50
180.077732
51
180.0831444
0
ARC
8
DEFAULT_255_2_778
10
790.361737
20
170.6267128
40
769.5473348
50
180.0733267
51
180.0779842
0
ARC
8
DEFAULT_255_2_778
10
787.0360856
20
170.6227661
40
766.2216813
50
180.0680536
51
180.0733499
0
ARC
8
DEFAULT_255_2_778
10
723.3068274
20
170.5495407
40
702.4923812
50
180.0598348
51
180.068255
0
ARC
8
DEFAULT_255_2_778
10
588.2711598
20
170.4092243
40
567.4566407
50
180.0456571
51
180.0599058
0
ARC
8
DEFAULT_255_2_778
10
422.4931505
20
170.2767726
40
401.6785785
50
180.0278507
51
180.0456073
0
ARC
8
DEFAULT_255_2_778
10
276.8530266
20
170.2069973
40
256.0384379
50
180.0049237
51
180.0280786
0
ARC
8
DEFAULT_255_2_778
10
271.3303529
20
170.2027106
40
250.5157639
50
180.0008322
51
180.0040518
0
ARC
8
DEFAULT_255_2_778
10
154.05429
20
170.2050863
40
133.239701
50
179.9578023
51
180.0025862
0
ARC
8
DEFAULT_255_2_778
10
83.8108951
20
170.2568652
40
62.996287
50
179.8990132
51
179.9578435
0
ARC
8
DEFAULT_255_2_778
10
48.8436273
20
170.3185998
40
28.0289646
50
179.819585
51
179.8992237
0
ARC
8
DEFAULT_255_2_778
10
30.8138506
20
170.3774065
40
9.9990924
50
179.6460695
51
179.8312383
0
ARC
8
DEFAULT_255_2_778
10
22.3145388
20
170.4324588
40
1.4996048
50
179.023405
51
179.7434663
0
ARC
8
DEFAULT_255_2_778
10
20.8404541
20
170.4584738
40
0.0253063
50
173.7189991
51
181.0320833
0
ARC
8
DEFAULT_255_2_778
10
20.821309
20
170.2477411
40
0.2135878
50
89.695023
51
91.6129067
0
ARC
8
DEFAULT_255_2_778
10
20.8554974
20
162.9029698
40
7.5584285
50
90.0805187
51
90.2505434
0
ARC
8
DEFAULT_255_2_778
10
20.9094678
20
132.019944
40
38.4415011
50
90.0357106
51
90.0962728
0
ARC
8
DEFAULT_255_2_778
10
20.9637754
20
52.5707357
40
117.8907279
50
90.0046031
51
90.0380383
0
ARC
8
DEFAULT_255_2_778
10
20.9739735
20
27.8252657
40
142.6361988
50
89.9973188
51
90.007901
0
ARC
8
DEFAULT_255_2_778
10
20.9770607
20
-150.6769307
40
321.1383954
50
89.9856871
51
89.9993599
0
ARC
8
DEFAULT_255_2_778
10
20.931998
20
-344.8006551
40
515.262125
50
89.9770232
51
89.9860686
0
ARC
8
DEFAULT_255_2_778
10
20.8382754
20
-587.4563362
40
757.9178243
50
89.9685316
51
89.9772944
0
ARC
8
DEFAULT_255_2_778
10
20.5533698
20
-1106.1871626
40
1276.648729
50
89.9669064
51
89.9685314
0
ARC
8
DEFAULT_255_2_778
10
20.5341245
20
-1124.9649013
40
1295.4264758
50
89.9635761
51
89.9665349
0
ARC
8
DEFAULT_255_2_778
10
20.5898282
20
-1032.9582666
40
1203.4198243
50
89.961453
51
89.9634435
0
ARC
8
DEFAULT_255_2_778
10
21.6564944
20
536.5995905
40
366.1383955
50
269.9597768
51
269.9613686
0
ARC
8
DEFAULT_255_2_778
10
21.4307686
20
198.0037785
40
27.5425082
50
269.9560206
51
269.965085
0
ARC
8
DEFAULT_255_2_778
10
24.0548224
20
3953.3078572
40
3782.8475035
50
269.9600013
51
269.9602975
0
ARC
8
DEFAULT_255_2_778
10
21.5129169
20
282.1114829
40
111.6502492
50
269.9592651
51
269.9624187
0
ARC
8
DEFAULT_255_2_778
10
24.9801887
20
5187.0014122
40
5016.541404
50
269.9595626
51
269.9597442
0
ARC
8
DEFAULT_255_2_778
10
21.472338
20
191.9106978
40
21.4494579
50
269.9552587
51
269.9721186
0
ARC
8
DEFAULT_255_2_778
10
20.8096402
20
169.0846736
40
0.0349919
50
268.4259877
51
279.3086891
0
ARC
8
DEFAULT_255_2_778
10
20.7794581
20
170.0845533
40
1.0352711
50
270.7275861
51
271.6174103
0
ARC
8
DEFAULT_255_2_778
10
20.7253201
20
173.9765156
40
4.9276094
50
270.3831688
51
270.7823727
0
ARC
8
DEFAULT_255_2_778
10
20.6493396
20
184.4902403
40
15.4416081
50
270.2101292
51
270.4042004
0
ARC
8
DEFAULT_255_2_778
10
20.5676037
20
205.7987015
40
36.7502259
50
270.0988387
51
270.2157229
0
ARC
8
DEFAULT_255_2_778
10
20.5079126
20
237.6532247
40
68.6048047
50
270.0415264
51
270.1027974
0
ARC
8
DEFAULT_255_2_778
10
20.4792531
20
274.8247778
40
105.7763687
50
269.9983965
51
270.0424573
0
ARC
8
DEFAULT_255_2_778
10
20.4801912
20
329.7045371
40
160.6561281
50
269.9581543
51
269.9986097
0
ARC
8
DEFAULT_255_2_778
10
20.5557588
20
428.3219525
40
259.2735723
50
269.9128744
51
269.9573714
0
ARC
8
DEFAULT_255_2_778
10
20.7359672
20
551.3938113
40
382.3455629
50
269.8896474
51
269.9139141
0
ARC
8
DEFAULT_255_2_778
10
20.897905
20
636.6935426
40
467.6454479
50
269.8757243
51
269.8899354
0
ARC
8
DEFAULT_255_2_778
10
21.1424358
20
748.9601117
40
579.9122834
50
269.871981
51
269.8756234
0
ARC
8
DEFAULT_255_2_778
10
21.0586085
20
710.5497577
40
541.501838
50
269.8591614
51
269.8717698
0
ARC
8
DEFAULT_255_2_778
10
21.0950878
20
725.3902083
40
556.3423335
50
269.8500542
51
269.8591614
0
ARC
8
DEFAULT_255_2_778
10
20.9591239
20
673.9515088
40
504.9034543
50
269.8439984
51
269.850207
0
ARC
8
DEFAULT_255_2_778
10
21.1823406
20
753.7436001
40
584.6958575
50
269.8402407
51
269.8434141
0
ARC
8
DEFAULT_255_2_778
10
20.6755515
20
570.2777358
40
401.2292934
50
269.8350827
51
269.8395589
0
ARC
8
DEFAULT_255_2_778
10
21.0885439
20
708.751036
40
539.7032088
50
269.8322635
51
269.8335522
0
ARC
8
DEFAULT_255_2_778
10
19.4455488
20
147.2604141
40
21.7898169
50
89.8343769
51
89.8365742
0
ARC
8
DEFAULT_255_2_778
10
19.3991236
20
169.0444251
40
0.108727
50
359.7279414
51
3.0142513
0
ARC
8
DEFAULT_255_2_778
10
15.8810904
20
169.008078
40
3.6269361
50
0.1873626
51
0.5660396
0
ARC
8
DEFAULT_255_2_778
10
-0.8470738
20
168.9396382
40
20.3552392
50
0.1025282
51
0.226029
0
ARC
8
DEFAULT_255_2_778
10
-32.9272018
20
168.8740576
40
52.4354339
50
0.063908
51
0.1114605
0
ARC
8
DEFAULT_255_2_778
10
-92.0923748
20
168.8085956
40
111.6006431
50
0.0227943
51
0.0636353
0
ARC
8
DEFAULT_255_2_778
10
-193.634672
20
168.7643149
40
213.1429499
50
359.9987868
51
0.0238382
0
ARC
8
DEFAULT_255_2_778
10
-328.3967502
20
168.7630692
40
347.9050282
50
359.9837367
51
359.9994619
0
ARC
8
DEFAULT_255_2_778
10
-531.7681227
20
168.8239507
40
551.2764098
50
359.9658166
51
359.9834088
0
ARC
8
DEFAULT_255_2_778
10
-796.3772112
20
168.975681
40
815.8855418
50
359.9565348
51
359.9662477
0
ARC
8
DEFAULT_255_2_778
10
-963.6208505
20
169.0971241
40
983.1292253
50
359.950158
51
359.9568513
0
ARC
8
DEFAULT_255_2_778
10
-1157.5492517
20
169.2595962
40
1177.0576944
50
359.9497013
51
359.9504611
0
ARC
8
DEFAULT_255_2_778
10
-1137.7523141
20
169.2490354
40
1157.2607551
50
359.9440514
51
359.9493637
0
ARC
8
DEFAULT_255_2_778
10
-1373.5200701
20
169.48325
40
1393.0286277
50
359.940877
51
359.9438873
0
ARC
8
DEFAULT_255_2_778
10
-1024.7261604
20
169.1261075
40
1044.2345351
50
359.9383028
51
359.9407248
0
ARC
8
DEFAULT_255_2_778
10
-707.210725
20
168.7843348
40
726.7189157
50
359.9354024
51
359.9382922
0
ARC
8
DEFAULT_255_2_778
10
-939.6834657
20
169.0491757
40
959.1918073
50
359.9341278
51
359.9352386
0
ARC
8
DEFAULT_255_2_778
10
-36.3930144
20
168.0089009
40
55.9007571
50
359.9293203
51
359.9359454
0
ARC
8
DEFAULT_255_2_778
10
10.7467339
20
170.7565354
40
0.2953652
50
268.7324806
51
270.2040014
0
ARC
8
DEFAULT_255_2_778
10
10.7882581
20
180.9243601
40
10.4632664
50
269.7783758
51
269.9080444
0
ARC
8
DEFAULT_255_2_778
10
10.8624283
20
220.6731372
40
50.2121123
50
269.8962044
51
269.9412538
0
ARC
8
DEFAULT_255_2_778
10
10.9490235
20
299.0678622
40
128.6068851
50
269.9384845
51
269.959127
0
ARC
8
DEFAULT_255_2_778
10
11.0566691
20
447.0187513
40
276.5578135
50
269.9586915
51
269.9744595
0
ARC
8
DEFAULT_255_2_778
10
11.1802647
20
720.8166281
40
550.3557182
50
269.9742986
51
269.98472
0
ARC
8
DEFAULT_255_2_778
10
11.2742171
20
1054.2922957
40
883.8313991
50
269.9843947
51
269.9899552
0
ARC
8
DEFAULT_255_2_778
10
11.3612184
20
1558.3077377
40
1387.8468487
50
269.9900113
51
269.9959366
0
ARC
8
DEFAULT_255_2_778
10
11.4180121
20
2320.7100886
40
2150.2492018
50
269.995864
51
270.0000857
0
ARC
8
DEFAULT_255_2_778
10
11.4191974
20
3059.2060122
40
2888.7451253
50
270.0000403
51
270.0030154
0
ARC
8
DEFAULT_255_2_778
10
11.3474821
20
4351.3599173
40
4180.8990324
50
270.0030663
51
270.0054892
0
ARC
8
DEFAULT_255_2_778
10
11.1972466
20
5757.9926528
40
5587.5317759
50
270.0056479
51
270.0087761
0
ARC
8
DEFAULT_255_2_778
10
10.9609857
20
7332.2003416
40
7161.7394824
50
270.0087372
51
270.0112994
0
ARC
8
DEFAULT_255_2_778
10
11.0051354
20
7255.449281
40
7084.9884147
50
270.0110648
51
270.0123548
0
ARC
8
DEFAULT_255_2_778
10
10.643084
20
9040.3111087
40
8869.850279
50
270.0122074
51
270.0131924
0
ARC
8
DEFAULT_255_2_778
10
10.8205016
20
8384.766707
40
8214.305854
50
270.0130077
51
270.0139906
0
ARC
8
DEFAULT_255_2_778
10
10.8047952
20
8575.1085687
40
8404.6477139
50
270.0137808
51
270.0145582
0
ARC
8
DEFAULT_255_2_778
10
9.1226661
20
15135.8660388
40
14965.4053997
50
270.0146161
51
270.0149661
0
ARC
8
DEFAULT_255_2_778
10
10.5486954
20
9668.9952807
40
9498.5344557
50
270.0149778
51
270.0156194
0
ARC
8
DEFAULT_255_2_778
10
10.1141755
20
11258.1530251
40
11087.6922597
50
270.0156261
51
270.0160634
0
ARC
8
DEFAULT_255_2_778
10
7.3364671
20
21256.3061969
40
21085.8458175
50
270.0159945
51
270.0161591
0
ARC
8
DEFAULT_255_2_778
10
11.6495246
20
5884.8962227
40
5714.435238
50
270.016381
51
270.0167349
0
ARC
8
DEFAULT_255_2_778
10
13.0984304
20
939.4814365
40
769.0202397
50
270.0164032
51
270.017753
0
ARC
8
DEFAULT_255_2_778
10
12.6168075
20
2585.3353649
40
2414.8742385
50
270.0170805
51
270.017598
0
ARC
8
DEFAULT_255_2_778
10
13.3270626
20
290.150399
40
119.6891629
50
270.0150583
51
270.0186396
0
ARC
8
DEFAULT_255_2_778
10
14.9618599
20
167.8681079
40
0.2120783
50
19.7993636
51
21.6135287
0
ARC
8
DEFAULT_255_2_778
10
5.8234114
20
164.3393546
40
10.0081584
50
21.1243388
51
21.3114157
0
ARC
8
DEFAULT_255_2_778
10
-37.4977321
20
147.4643914
40
56.49994
50
21.2876186
51
21.3360043
0
ARC
8
DEFAULT_255_2_778
10
-145.9452987
20
105.1062508
40
172.9262548
50
21.3352868
51
21.3666204
0
ARC
8
DEFAULT_255_2_778
10
-363.9229986
20
19.8389405
40
406.9877677
50
21.3652102
51
21.3805812
0
LINE
8
DEFAULT_255_2_778
10
15.0556377
20
168.2108924
11
15.0554507
21
168.2113702
0
ARC
8
DEFAULT_255_2_778
10
-661.7946377
20
-96.7798702
40
726.8744044
50
21.3806683
51
21.3929469
0
ARC
8
DEFAULT_255_2_778
10
-856.6364381
20
-173.1035701
40
936.1317444
50
21.3925879
51
21.3972949
0
ARC
8
DEFAULT_255_2_778
10
-744.8163275
20
-129.2887431
40
816.0339667
50
21.397354
51
21.4003223
0
ARC
8
DEFAULT_255_2_778
10
90.7268819
20
198.1669864
40
81.3843916
50
201.3996524
51
201.4032745
0
LINE
8
DEFAULT_255_2_778
10
14.9532907
20
168.472171
11
14.9495002
21
168.4818424
0
ARC
8
DEFAULT_255_2_778
10
13.517887
20
168.2115619
40
0.2717049
50
269.7292414
51
271.4368835
0
ARC
8
DEFAULT_255_2_778
10
13.4787768
20
177.6966783
40
9.7568916
50
270.0730211
51
270.2221289
0
ARC
8
DEFAULT_255_2_778
10
13.4178372
20
217.0126297
40
49.0728899
50
270.0320035
51
270.0856694
0
ARC
8
DEFAULT_255_2_778
10
13.3683084
20
292.436171
40
124.4964473
50
270.0125245
51
270.035409
0
ARC
8
DEFAULT_255_2_778
10
13.3394301
20
413.5353014
40
245.5955812
50
269.9996137
51
270.013086
0
ARC
8
DEFAULT_255_2_778
10
13.3407217
20
572.2242697
40
404.2845495
50
269.9876375
51
269.9995823
0
ARC
8
DEFAULT_255_2_778
10
13.3948962
20
827.1691063
40
659.2293917
50
269.9799495
51
269.98771
0
ARC
8
DEFAULT_255_2_778
10
13.5079497
20
1143.9035424
40
975.963848
50
269.9720485
51
269.9798195
0
ARC
8
DEFAULT_255_2_778
10
13.7858658
20
1702.4308753
40
1534.4912499
50
269.9703069
51
269.9718453
0
ARC
8
DEFAULT_255_2_778
10
13.7762312
20
1665.604843
40
1497.6652177
50
269.967104
51
269.9699453
0
ARC
8
DEFAULT_255_2_778
10
13.6585067
20
1455.9105729
40
1287.9709146
50
269.9649336
51
269.9669852
0
ARC
8
DEFAULT_255_2_778
10
13.5288579
20
1238.6708923
40
1070.7311953
50
269.9626615
51
269.9647567
0
ARC
8
DEFAULT_255_2_778
10
13.1150234
20
612.2740223
40
444.3341888
50
269.9607758
51
269.9633867
0
ARC
8
DEFAULT_255_2_778
10
12.6736245
20
-30.7437873
40
198.6837723
50
89.9604313
51
89.9624892
0
ARC
8
DEFAULT_255_2_778
10
13.9533971
20
170.6107174
40
0.1496629
50
267.128735
51
270.5415064
0
ARC
8
DEFAULT_255_2_778
10
13.9962507
20
175.7985925
40
5.3376922
50
269.5551808
51
269.8551485
0
ARC
8
DEFAULT_255_2_778
10
14.0507752
20
192.3425859
40
21.8817742
50
269.8218974
51
269.9049374
0
ARC
8
DEFAULT_255_2_778
10
14.1065243
20
226.3986013
40
55.9378353
50
269.9057109
51
269.9690809
0
ARC
8
DEFAULT_255_2_778
10
14.1480204
20
294.8636555
40
124.402902
50
269.9669855
51
270.001659
0
ARC
8
DEFAULT_255_2_778
10
14.1479881
20
391.3751817
40
220.9144281
50
270.0009426
51
270.0250002
0
ARC
8
DEFAULT_255_2_778
10
14.0876739
20
535.5854927
40
365.1247517
50
270.0245907
51
270.0400112
0
ARC
8
DEFAULT_255_2_778
10
13.98719
20
678.8906063
40
508.4299006
50
270.0400574
51
270.0511315
0
ARC
8
DEFAULT_255_2_778
10
13.8752094
20
802.7178102
40
632.2571551
50
270.0512652
51
270.0596711
0
ARC
8
DEFAULT_255_2_778
10
13.8060916
20
869.9265634
40
699.4659439
50
270.0595992
51
270.0662947
0
ARC
8
DEFAULT_255_2_778
10
13.8093706
20
866.826193
40
696.3655717
50
270.0663201
51
270.0704962
0
ARC
8
DEFAULT_255_2_778
10
13.9287235
20
771.6709519
40
601.210256
50
270.0702794
51
270.074386
0
ARC
8
DEFAULT_255_2_778
10
14.0633869
20
668.4450611
40
497.9842775
50
270.0743116
51
270.0768754
0
ARC
8
DEFAULT_255_2_778
10
14.557187
20
300.1051877
40
129.6440731
50
270.0770577
51
270.0805286
0
ARC
8
DEFAULT_255_2_778
10
19.7865682
20
169.4741699
40
11.0854885
50
180.0840769
51
180.110284
0
ARC
8
DEFAULT_255_2_778
10
250.5488055
20
169.8455943
40
241.8480246
50
180.0868647
51
180.0918473
0
ARC
8
DEFAULT_255_2_778
10
585.837856
20
170.3544927
40
577.1374613
50
180.0830396
51
180.0869218
0
ARC
8
DEFAULT_255_2_778
10
657.1724106
20
170.4590648
40
648.4720924
50
180.077732
51
180.0831444
0
ARC
8
DEFAULT_255_2_778
10
778.247537
20
170.6267128
40
769.5473348
50
180.0733267
51
180.0779842
0
ARC
8
DEFAULT_255_2_778
10
774.9218857
20
170.6227661
40
766.2216813
50
180.0680536
51
180.0733499
0
ARC
8
DEFAULT_255_2_778
10
711.1926274
20
170.5495407
40
702.4923812
50
180.0598348
51
180.068255
0
ARC
8
DEFAULT_255_2_778
10
576.1569598
20
170.4092243
40
567.4566407
50
180.0456571
51
180.0599058
0
ARC
8
DEFAULT_255_2_778
10
410.3789505
20
170.2767726
40
401.6785785
50
180.0278507
51
180.0456073
0
ARC
8
DEFAULT_255_2_778
10
264.7388266
20
170.2069973
40
256.0384379
50
180.0049237
51
180.0280786
0
ARC
8
DEFAULT_255_2_778
10
259.2161529
20
170.2027106
40
250.5157639
50
180.0008322
51
180.0040518
0
ARC
8
DEFAULT_255_2_778
10
141.94009
20
170.2050863
40
133.239701
50
179.9578023
51
180.0025862
0
ARC
8
DEFAULT_255_2_778
10
71.6966951
20
170.2568652
40
62.996287
50
179.8990132
51
179.9578435
0
ARC
8
DEFAULT_255_2_778
10
36.7294273
20
170.3185998
40
28.0289646
50
179.819585
51
179.8992237
0
ARC
8
DEFAULT_255_2_778
10
18.6996506
20
170.3774065
40
9.9990924
50
179.6460695
51
179.8312383
0
ARC
8
DEFAULT_255_2_778
10
10.2003388
20
170.4324588
40
1.4996048
50
179.023405
51
179.7434663
0
ARC
8
DEFAULT_255_2_778
10
8.7262541
20
170.4584738
40
0.0253063
50
173.7189991
51
181.0320833
0
ARC
8
DEFAULT_255_2_778
10
8.7071257
20
170.2465642
40
0.2147648
50
89.69583
51
91.6085127
0
ARC
8
DEFAULT_255_2_778
10
8.7414098
20
162.8608891
40
7.6005092
50
90.0803101
51
90.2498533
0
ARC
8
DEFAULT_255_2_778
10
8.7955241
20
131.8125486
40
38.6488965
50
90.0356206
51
90.0960162
0
ARC
8
DEFAULT_255_2_778
10
8.8499632
20
51.9683622
40
118.4931015
50
90.0045934
51
90.0379417
0
ARC
8
DEFAULT_255_2_778
10
8.8601799
20
27.1421817
40
143.3192828
50
89.9973252
51
90.0078821
0
ARC
8
DEFAULT_255_2_778
10
8.8622984
20
-164.4776912
40
334.9391559
50
89.9861178
51
89.9992179
0
ARC
8
DEFAULT_255_2_778
10
8.8087445
20
-377.6017283
40
548.0631997
50
89.9774215
51
89.9859175
0
ARC
8
DEFAULT_255_2_778
10
8.705443
20
-628.8433047
40
799.3047974
50
89.968766
51
89.9771136
0
ARC
8
DEFAULT_255_2_778
10
8.4432737
20
-1105.7228307
40
1276.1843955
50
89.9670347
51
89.968667
0
ARC
8
DEFAULT_255_2_778
10
8.4289233
20
-1112.5050693
40
1282.9666413
50
89.963579
51
89.9665681
0
ARC
8
DEFAULT_255_2_778
10
8.4945235
20
-1005.0316097
40
1175.4931616
50
89.96141
51
89.9634466
0
ARC
8
DEFAULT_255_2_778
10
9.5465784
20
540.8572673
40
370.3960735
50
269.9597296
51
269.9613009
0
ARC
8
DEFAULT_255_2_778
10
9.3175259
20
197.9314866
40
27.4702163
50
269.9559427
51
269.9650141
0
ARC
8
DEFAULT_255_2_778
10
12.7906756
20
5160.2629246
40
4989.8028697
50
269.9599267
51
269.9601506
0
ARC
8
DEFAULT_255_2_778
10
9.4002419
20
282.5424874
40
112.0812541
50
269.9591089
51
269.962237
0
ARC
8
DEFAULT_255_2_778
10
9.5872581
20
529.5650183
40
359.1038555
50
269.9583748
51
269.9604007
0
ARC
8
DEFAULT_255_2_778
10
9.3764175
20
219.2058976
40
48.7446633
50
269.9560978
51
269.9669502
0
ARC
8
DEFAULT_255_2_778
10
8.6954436
20
169.0846321
40
0.0349504
50
268.4251507
51
279.3141647
0
ARC
8
DEFAULT_255_2_778
10
8.6652804
20
170.0832438
40
1.0339616
50
270.72804
51
271.6184463
0
ARC
8
DEFAULT_255_2_778
10
8.6111765
20
173.9703729
40
4.9214667
50
270.3833957
51
270.7828533
0
ARC
8
DEFAULT_255_2_778
10
8.5352417
20
184.4711796
40
15.4225473
50
270.210258
51
270.4044502
0
ARC
8
DEFAULT_255_2_778
10
8.4535566
20
205.7532733
40
36.7047977
50
270.0988984
51
270.2158557
0
ARC
8
DEFAULT_255_2_778
10
8.3938993
20
237.5704753
40
68.5220553
50
270.0415522
51
270.1028597
0
ARC
8
DEFAULT_255_2_778
10
8.3652587
20
274.6951382
40
105.6467291
50
269.9983955
51
270.0424833
0
ARC
8
DEFAULT_255_2_778
10
8.3661961
20
329.5076295
40
160.4592205
50
269.9581286
51
269.9986089
0
ARC
8
DEFAULT_255_2_778
10
8.4417172
20
428.0047035
40
258.9563233
50
269.9128211
51
269.9573454
0
ARC
8
DEFAULT_255_2_778
10
8.6218096
20
550.9226974
40
381.8744491
50
269.8895797
51
269.9138616
0
ARC
8
DEFAULT_255_2_778
10
8.7836894
20
636.1392259
40
467.0911313
50
269.8756487
51
269.8898679
0
ARC
8
DEFAULT_255_2_778
10
9.02726
20
747.9012151
40
578.853386
50
269.871902
51
269.8755488
0
ARC
8
DEFAULT_255_2_778
10
8.9441737
20
709.8512707
40
540.803351
50
269.8590749
51
269.8716919
0
ARC
8
DEFAULT_255_2_778
10
8.9808472
20
724.7617466
40
555.7138719
50
269.849963
51
269.859075
0
ARC
8
DEFAULT_255_2_778
10
8.8450676
20
673.4194898
40
504.3714356
50
269.8439031
51
269.8501144
0
ARC
8
DEFAULT_255_2_778
10
9.0679746
20
753.0533919
40
584.0056494
50
269.840144
51
269.8433192
0
ARC
8
DEFAULT_255_2_778
10
8.5621115
20
570.0240579
40
400.9756164
50
269.8349829
51
269.8394592
0
ARC
8
DEFAULT_255_2_778
10
8.9782097
20
709.4740969
40
540.4262756
50
269.8321628
51
269.833449
0
ARC
8
DEFAULT_255_2_778
10
7.3291177
20
146.2213031
40
22.8289323
50
89.8343094
51
89.8364055
0
LINE
8
DEFAULT_255_2_778
10
19.5077002
20
170.4612424
11
19.5077002
21
169.4528424
0
LINE
8
DEFAULT_255_2_778
10
19.5077002
20
169.4528424
11
20.8153002
21
169.4528424
0
LINE
8
DEFAULT_255_2_778
10
21.4619002
20
170.4612424
11
21.4619002
21
167.9399424
0
LINE
8
DEFAULT_255_2_778
10
21.4619002
20
167.9399424
11
20.8153002
21
167.9399424
0
LINE
8
DEFAULT_255_2_778
10
20.8153002
20
167.9399424
11
20.8153002
21
169.0501424
0
LINE
8
DEFAULT_255_2_778
10
19.5077002
20
167.9399424
11
18.8611002
21
167.9399424
0
LINE
8
DEFAULT_255_2_778
10
18.8611002
20
167.9399424
11
18.8611002
21
170.4612424
0
LINE
8
DEFAULT_255_2_778
10
18.8611002
20
170.4612424
11
19.5077002
21
170.4612424
0
LINE
8
DEFAULT_255_2_778
10
19.5077002
20
170.4612424
11
19.5077002
21
170.4612424
0
LINE
8
DEFAULT_255_2_778
10
13.3660002
20
170.4612424
11
13.3660002
21
170.0331424
0
LINE
8
DEFAULT_255_2_778
10
13.3660002
20
170.0331424
11
12.3761002
21
170.0331424
0
LINE
8
DEFAULT_255_2_778
10
12.3761002
20
170.0331424
11
12.3761002
21
167.9399424
0
LINE
8
DEFAULT_255_2_778
10
12.3761002
20
167.9399424
11
11.7295002
21
167.9399424
0
LINE
8
DEFAULT_255_2_778
10
11.7295002
20
167.9399424
11
11.7295002
21
170.0331424
0
LINE
8
DEFAULT_255_2_778
10
11.7295002
20
170.0331424
11
10.7402002
21
170.0331424
0
LINE
8
DEFAULT_255_2_778
10
10.7402002
20
170.0331424
11
10.7402002
21
170.4612424
0
LINE
8
DEFAULT_255_2_778
10
15.8824002
20
167.9399424
11
15.1614002
21
167.9399424
0
LINE
8
DEFAULT_255_2_778
10
14.9495002
20
168.4818424
11
13.7364002
21
168.4818424
0
LINE
8
DEFAULT_255_2_778
10
13.7364002
20
168.4818424
11
13.5247002
21
167.9399424
0
LINE
8
DEFAULT_255_2_778
10
12.8037002
20
167.9399424
11
13.9459002
21
170.4612424
0
LINE
8
DEFAULT_255_2_778
10
14.7394002
20
170.4612424
11
15.8821002
21
167.9399424
0
LINE
8
DEFAULT_255_2_778
10
15.8821002
20
167.9399424
11
15.8824002
21
167.9399424
0
LINE
8
DEFAULT_255_2_778
10
14.3417002
20
170.0328424
11
13.8922002
21
168.8856424
0
LINE
8
DEFAULT_255_2_778
10
13.8922002
20
168.8856424
11
14.7942002
21
168.8856424
0
LINE
8
DEFAULT_255_2_778
10
14.7942002
20
168.8856424
11
14.3420002
21
170.0328424
0
LINE
8
DEFAULT_255_2_778
10
14.3420002
20
170.0328424
11
14.3417002
21
170.0328424
0
LINE
8
DEFAULT_255_2_778
10
21.9750002
20
170.4612424
11
22.6224002
21
170.4612424
0
LINE
8
DEFAULT_255_2_778
10
22.6224002
20
170.4612424
11
22.6224002
21
167.9399424
0
LINE
8
DEFAULT_255_2_778
10
22.6224002
20
167.9399424
11
21.9750002
21
167.9399424
0
LINE
8
DEFAULT_255_2_778
10
21.9750002
20
167.9399424
11
21.9750002
21
170.4612424
0
LINE
8
DEFAULT_255_2_778
10
21.9750002
20
170.4612424
11
21.9750002
21
170.4612424
0
LINE
8
DEFAULT_255_2_778
10
7.3943002
20
170.4612424
11
7.3943002
21
169.4528424
0
LINE
8
DEFAULT_255_2_778
10
7.3943002
20
169.4528424
11
8.7011002
21
169.4528424
0
LINE
8
DEFAULT_255_2_778
10
9.3483002
20
170.4612424
11
9.3483002
21
167.9399424
0
LINE
8
DEFAULT_255_2_778
10
9.3483002
20
167.9399424
11
8.7011002
21
167.9399424
0
LINE
8
DEFAULT_255_2_778
10
8.7011002
20
167.9399424
11
8.7011002
21
169.0501424
0
LINE
8
DEFAULT_255_2_778
10
7.3943002
20
169.0501424
11
7.3943002
21
167.9399424
0
LINE
8
DEFAULT_255_2_778
10
7.3943002
20
167.9399424
11
6.7474002
21
167.9399424
0
LINE
8
DEFAULT_255_2_778
10
6.7474002
20
167.9399424
11
6.7474002
21
170.4612424
0
LINE
8
DEFAULT_255_2_778
10
6.7474002
20
170.4612424
11
7.3943002
21
170.4612424
0
LINE
8
DEFAULT_255_2_778
10
7.3943002
20
170.4612424
11
7.3943002
21
170.4612424
0
LINE
8
DEFAULT_255_2_778
10
9.8615002
20
170.4612424
11
10.5087002
21
170.4612424
0
LINE
8
DEFAULT_255_2_778
10
10.5087002
20
170.4612424
11
10.5087002
21
167.9399424
0
LINE
8
DEFAULT_255_2_778
10
10.5087002
20
167.9399424
11
9.8615002
21
167.9399424
0
LINE
8
DEFAULT_255_2_778
10
9.8615002
20
167.9399424
11
9.8615002
21
170.4612424
0
LINE
8
DEFAULT_255_2_778
10
9.8615002
20
170.4612424
11
9.8615002
21
170.4612424
0
ARC
8
DEFAULT_255_2_778
10
17.4432498
20
169.169343
40
1.6712029
50
179.7780449
51
198.548653
0
ARC
8
DEFAULT_255_2_778
10
17.3285801
20
169.2158612
40
1.5570357
50
157.2384894
51
181.4737073
0
ARC
8
DEFAULT_255_2_778
10
16.8557993
20
169.3824579
40
1.0570238
50
150.0033041
51
155.6503891
0
ARC
8
DEFAULT_255_2_778
10
16.8912441
20
169.3690902
40
1.0944213
50
111.1896137
51
150.3249309
0
ARC
8
DEFAULT_255_2_778
10
17.211737
20
168.5491045
40
1.9748127
50
90.0023899
51
111.260283
0
LINE
8
DEFAULT_255_2_778
10
17.2116546
20
170.5239172
11
17.2124594
21
170.523917
0
ARC
8
DEFAULT_255_2_778
10
17.2053152
20
168.5220328
40
2.001897
50
65.6894838
51
89.7955268
0
ARC
8
DEFAULT_255_2_778
10
17.6941262
20
169.6060165
40
0.8127984
50
11.194763
51
65.633853
0
ARC
8
DEFAULT_255_2_778
10
17.1873663
20
169.5035758
40
1.3298061
50
5.546653
51
11.2855352
0
ARC
8
DEFAULT_255_2_778
10
16.4257687
20
169.4185107
40
2.096089
50
5.069153
51
5.8488032
0
ARC
8
DEFAULT_255_2_778
10
17.2342589
20
169.5975815
40
0.6000319
50
0.5858781
51
19.5041288
0
ARC
8
DEFAULT_255_2_778
10
17.3510531
20
169.6337505
40
0.4778888
50
20.0917475
51
72.2606938
0
ARC
8
DEFAULT_255_2_778
10
17.217452
20
169.2232329
40
0.9095965
50
72.1240293
51
89.9981804
0
ARC
8
DEFAULT_255_2_778
10
17.217443
20
169.2338837
40
0.8989456
50
89.9975864
51
90.2985155
0
ARC
8
DEFAULT_255_2_778
10
17.2094016
20
169.2177853
40
0.9150378
50
89.7897444
51
110.2588109
0
ARC
8
DEFAULT_255_2_778
10
17.101001
20
169.5241628
40
0.5900947
50
110.6852559
51
162.0403298
0
ARC
8
DEFAULT_255_2_778
10
18.0683819
20
169.173883
40
1.6187234
50
160.8041275
51
179.9386229
0
ARC
8
DEFAULT_255_2_778
10
18.1558236
20
169.1909548
40
1.7062331
50
180.5150557
51
195.5894688
0
ARC
8
DEFAULT_255_2_778
10
17.0879104
20
168.887183
40
0.5959962
50
195.0508469
51
248.0946429
0
ARC
8
DEFAULT_255_2_778
10
17.2161907
20
169.2310499
40
0.962939
50
248.6461851
51
269.7958357
0
ARC
8
DEFAULT_255_2_778
10
17.2162371
20
169.2066504
40
0.9385398
50
269.7876919
51
288.3854007
0
ARC
8
DEFAULT_255_2_778
10
17.3618099
20
168.7614006
40
0.4701081
50
288.6648473
51
337.0664801
0
ARC
8
DEFAULT_255_2_778
10
17.1620914
20
168.8443937
40
0.686381
50
337.1824881
51
0.3525413
0
ARC
8
DEFAULT_255_2_778
10
17.1306441
20
168.9223919
40
1.4016582
50
347.106098
51
356.982897
0
ARC
8
DEFAULT_255_2_778
10
17.714149
20
168.7831536
40
0.8018149
50
294.3589809
51
347.5005795
0
ARC
8
DEFAULT_255_2_778
10
17.2068565
20
169.9763417
40
2.0982328
50
270.1611893
51
293.5397442
0
ARC
8
DEFAULT_255_2_778
10
17.2113432
20
169.3639698
40
1.4858535
50
269.9818014
51
270.0546119
0
ARC
8
DEFAULT_255_2_778
10
17.2109535
20
169.9831674
40
2.1050512
50
251.8970159
51
269.9977614
0
ARC
8
DEFAULT_255_2_778
10
16.8688452
20
169.0134855
40
1.0773317
50
200.3966403
51
253.1665191
0
LINE
8
DEFAULT_255_2_778
10
18.5136594
20
169.603717
11
17.8342594
21
169.603717
0
LINE
8
DEFAULT_255_2_778
10
17.8484594
20
168.848617
11
18.5303594
21
168.848617
0
LINE
8
DEFAULT_255_1_234
10
9.9589364
20
166.5441211
11
10.1581235
21
166.5441211
0
LINE
8
DEFAULT_255_1_234
10
10.1581235
20
166.5441211
11
10.5404342
21
165.5899506
0
LINE
8
DEFAULT_255_1_234
10
10.5404342
20
165.5899506
11
10.922745
21
166.5441211
0
LINE
8
DEFAULT_255_1_234
10
10.922745
20
166.5441211
11
11.1227353
21
166.5441211
0
LINE
8
DEFAULT_255_1_234
10
11.1227353
20
166.5441211
11
11.1227353
21
165.3747
0
LINE
8
DEFAULT_255_1_234
10
11.1227353
20
165.3747
11
10.9685259
21
165.3747
0
LINE
8
DEFAULT_255_1_234
10
10.9685259
20
165.3747
11
10.9685259
21
165.8300996
0
LINE
8
DEFAULT_255_1_234
10
10.9685259
20
165.8300996
11
10.982983
21
166.3216419
0
LINE
8
DEFAULT_255_1_234
10
10.982983
20
166.3216419
11
10.5990659
21
165.3747
0
LINE
8
DEFAULT_255_1_234
10
10.5990659
20
165.3747
11
10.4809994
21
165.3747
0
LINE
8
DEFAULT_255_1_234
10
10.4809994
20
165.3747
11
10.0978854
21
166.3192324
0
LINE
8
DEFAULT_255_1_234
10
10.0978854
20
166.3192324
11
10.1131458
21
165.8300996
0
LINE
8
DEFAULT_255_1_234
10
10.1131458
20
165.8300996
11
10.1131458
21
165.3747
0
LINE
8
DEFAULT_255_1_234
10
10.1131458
20
165.3747
11
9.9589364
21
165.3747
0
LINE
8
DEFAULT_255_1_234
10
9.9589364
20
165.3747
11
9.9589364
21
166.5441211
0
LINE
8
DEFAULT_255_1_234
10
11.5331571
20
166.2437341
11
11.5331571
21
165.3747
0
LINE
8
DEFAULT_255_1_234
10
11.5331571
20
165.3747
11
11.3845699
21
165.3747
0
LINE
8
DEFAULT_255_1_234
10
11.3845699
20
165.3747
11
11.3845699
21
166.2437341
0
LINE
8
DEFAULT_255_1_234
10
11.3845699
20
166.2437341
11
11.5331571
21
166.2437341
0
ARC
8
DEFAULT_255_1_234
10
11.4703848
20
166.4751889
40
0.097867
50
161.415052
51
180.5526306
0
ARC
8
DEFAULT_255_1_234
10
11.4579626
20
166.4786077
40
0.0850062
50
138.1827368
51
160.9307106
0
ARC
8
DEFAULT_255_1_234
10
11.4469572
20
166.4881588
40
0.0704362
50
104.6368899
51
138.0039868
0
ARC
8
DEFAULT_255_1_234
10
11.4576726
20
166.4514963
40
0.1086221
50
92.0600725
51
105.2189128
0
ARC
8
DEFAULT_255_1_234
10
11.4600075
20
166.4172117
40
0.1429728
50
89.9756393
51
92.5012496
0
ARC
8
DEFAULT_255_1_234
10
11.4610094
20
166.4397731
40
0.1204151
50
78.0235316
51
90.4478182
0
ARC
8
DEFAULT_255_1_234
10
11.4702186
20
166.4811295
40
0.0780493
50
55.051506
51
78.3369085
0
ARC
8
DEFAULT_255_1_234
10
11.475246
20
166.4895711
40
0.0682538
50
42.0501187
51
54.4513741
0
ARC
8
DEFAULT_255_1_234
10
11.4617328
20
166.4771798
40
0.0865878
50
1.7497075
51
42.1496013
0
ARC
8
DEFAULT_255_1_234
10
11.436266
20
166.4742738
40
0.1121515
50
359.9852656
51
2.8364544
0
ARC
8
DEFAULT_255_1_234
10
11.4528653
20
166.4733229
40
0.0955566
50
342.1070653
51
0.552888
0
ARC
8
DEFAULT_255_1_234
10
11.467135
20
166.4693904
40
0.0807713
50
316.7107116
51
341.6516965
0
ARC
8
DEFAULT_255_1_234
10
11.4738387
20
166.4633823
40
0.0717724
50
285.4397031
51
316.5324284
0
ARC
8
DEFAULT_255_1_234
10
11.4628304
20
166.4999554
40
0.1099597
50
272.3547054
51
285.8953117
0
ARC
8
DEFAULT_255_1_234
10
11.4601462
20
166.5365048
40
0.1465932
50
269.9695369
51
272.8160237
0
ARC
8
DEFAULT_255_1_234
10
11.4591644
20
166.5145863
40
0.1246779
50
258.8431134
51
270.4153935
0
ARC
8
DEFAULT_255_1_234
10
11.4501686
20
166.4710414
40
0.0802162
50
238.5431189
51
259.1288175
0
ARC
8
DEFAULT_255_1_234
10
11.4433571
20
166.4586856
40
0.0661247
50
222.5062634
51
237.9906969
0
ARC
8
DEFAULT_255_1_234
10
11.4561158
20
166.4702889
40
0.0833707
50
184.1069131
51
222.460413
0
ARC
8
DEFAULT_255_1_234
10
11.4830399
20
166.4741349
40
0.1105176
50
179.9429482
51
185.0960898
0
LINE
8
DEFAULT_255_1_234
10
12.3242833
20
165.6485823
11
12.4648387
21
165.6485823
0
LINE
8
DEFAULT_255_1_234
10
11.7323442
20
165.8011853
11
11.7323442
21
165.8260837
0
LINE
8
DEFAULT_255_1_234
10
12.4648387
20
165.9449534
11
12.3242833
21
165.9449534
0
LINE
8
DEFAULT_255_1_234
10
11.8809313
20
165.8204615
11
11.8809313
21
165.7923504
0
ARC
8
DEFAULT_255_1_234
10
12.1230868
20
165.6939121
40
0.2140268
50
269.0327816
51
309.2224514
0
ARC
8
DEFAULT_255_1_234
10
12.1440623
20
165.6724108
40
0.1841255
50
308.396669
51
329.6984113
0
ARC
8
DEFAULT_255_1_234
10
12.1578478
20
165.661982
40
0.166974
50
330.401383
51
355.3970571
0
ARC
8
DEFAULT_255_1_234
10
12.2035344
20
165.6637082
40
0.2617417
50
329.2357853
51
356.6870514
0
ARC
8
DEFAULT_255_1_234
10
12.1485366
20
165.6927971
40
0.3238945
50
324.8706984
51
329.7905871
0
ARC
8
DEFAULT_255_1_234
10
12.1407084
20
165.6995106
40
0.3341614
50
298.8769168
51
324.7016144
0
ARC
8
DEFAULT_255_1_234
10
12.1075276
20
165.7523917
40
0.3965068
50
296.9023738
51
299.385174
0
ARC
8
DEFAULT_255_1_234
10
12.1204889
20
165.7236422
40
0.365007
50
269.8406811
51
297.1299281
0
ARC
8
DEFAULT_255_1_234
10
12.1151546
20
165.7874407
40
0.4288259
50
253.315473
51
270.5771285
0
ARC
8
DEFAULT_255_1_234
10
12.0904581
20
165.6980739
40
0.3361372
50
221.1002312
51
252.9744583
0
ARC
8
DEFAULT_255_1_234
10
12.1364578
20
165.737559
40
0.3967576
50
194.5394537
51
221.0302238
0
ARC
8
DEFAULT_255_1_234
10
12.3213399
20
165.7890952
40
0.5886672
50
182.0499201
51
194.8773585
0
ARC
8
DEFAULT_255_1_234
10
12.4983597
20
165.800906
40
0.7660157
50
179.9791086
51
182.4591564
0
ARC
8
DEFAULT_255_1_234
10
12.3245642
20
165.8290498
40
0.5922274
50
168.614861
51
180.2869651
0
ARC
8
DEFAULT_255_1_234
10
12.2043786
20
165.8526269
40
0.4697532
50
154.9162259
51
168.5402336
0
ARC
8
DEFAULT_255_1_234
10
12.1122294
20
165.898163
40
0.3669966
50
133.5746694
51
155.2558665
0
ARC
8
DEFAULT_255_1_234
10
12.0959453
20
165.9120467
40
0.3457206
50
122.0165146
51
133.2055214
0
ARC
8
DEFAULT_255_1_234
10
12.0995292
20
165.9032361
40
0.355095
50
97.8731644
51
121.7531281
0
ARC
8
DEFAULT_255_1_234
10
12.1174374
20
165.7975159
40
0.4622833
50
89.8471353
51
98.2769494
0
ARC
8
DEFAULT_255_1_234
10
12.1223127
20
165.8585091
40
0.401305
50
73.3760412
51
90.5199766
0
ARC
8
DEFAULT_255_1_234
10
12.141949
20
165.9307516
40
0.3264695
50
47.7085968
51
73.0509704
0
ARC
8
DEFAULT_255_1_234
10
12.154936
20
165.9420128
40
0.309407
50
3.7443473
51
48.0843753
0
ARC
8
DEFAULT_255_1_234
10
12.056231
20
165.9262614
40
0.4090351
50
2.6192045
51
5.0432185
0
ARC
8
DEFAULT_255_1_234
10
12.1019163
20
165.9302592
40
0.2228519
50
3.780656
51
23.9356886
0
ARC
8
DEFAULT_255_1_234
10
12.1247779
20
165.9383155
40
0.198697
50
24.4869552
51
46.9440088
0
ARC
8
DEFAULT_255_1_234
10
12.124863
20
165.9406484
40
0.1969404
50
46.498716
51
89.3298174
0
ARC
8
DEFAULT_255_1_234
10
12.1186984
20
165.8811723
40
0.2565428
50
88.1083975
51
90.0061569
0
ARC
8
DEFAULT_255_1_234
10
12.1159414
20
165.8865759
40
0.251154
50
89.3773333
51
107.2071161
0
ARC
8
DEFAULT_255_1_234
10
12.1016537
20
165.938319
40
0.1975072
50
107.6883219
51
143.3583002
0
ARC
8
DEFAULT_255_1_234
10
12.158392
20
165.8956873
40
0.2684762
50
143.2846717
51
162.935323
0
ARC
8
DEFAULT_255_1_234
10
12.3089522
20
165.8473652
40
0.4265927
50
162.6650068
51
174.0805419
0
ARC
8
DEFAULT_255_1_234
10
12.5232361
20
165.8224636
40
0.6423078
50
173.8423985
51
180.1785963
0
ARC
8
DEFAULT_255_1_234
10
12.4684461
20
165.7893039
40
0.5875227
50
179.7028978
51
188.2277152
0
ARC
8
DEFAULT_255_1_234
10
12.2582763
20
165.7578247
40
0.3750127
50
188.0629871
51
201.1160002
0
ARC
8
DEFAULT_255_1_234
10
12.1484961
20
165.7159238
40
0.2575093
50
201.2187293
51
216.9761968
0
ARC
8
DEFAULT_255_1_234
10
12.1033524
20
165.6820993
40
0.2010998
50
217.0135981
51
265.2056839
0
ARC
8
DEFAULT_255_1_234
10
12.1189384
20
165.7742695
40
0.2943543
50
263.681807
51
270.104251
0
LINE
8
DEFAULT_255_1_234
10
13.0519588
20
166.2485531
11
13.0519588
21
166.1104072
0
LINE
8
DEFAULT_255_1_234
10
12.780486
20
165.9915375
11
12.780486
21
165.3747
0
LINE
8
DEFAULT_255_1_234
10
12.780486
20
165.3747
11
12.6318989
21
165.3747
0
LINE
8
DEFAULT_255_1_234
10
12.6318989
20
165.3747
11
12.6318989
21
166.2437341
0
LINE
8
DEFAULT_255_1_234
10
12.6318989
20
166.2437341
11
12.7764702
21
166.2437341
0
LINE
8
DEFAULT_255_1_234
10
12.7764702
20
166.2437341
11
12.7788797
21
166.1433374
0
ARC
8
DEFAULT_255_1_234
10
12.9852993
20
165.7044342
40
0.4114092
50
80.6754243
51
86.8932892
0
ARC
8
DEFAULT_255_1_234
10
12.9792528
20
165.60767
40
0.5083596
50
86.8038578
51
90.0431435
0
ARC
8
DEFAULT_255_1_234
10
12.9755509
20
165.8533866
40
0.2626638
50
89.2759698
51
106.6213787
0
ARC
8
DEFAULT_255_1_234
10
12.9551072
20
165.927683
40
0.1856317
50
107.1346045
51
157.6458115
0
ARC
8
DEFAULT_255_1_234
10
13.0242674
20
165.8893311
40
0.2643398
50
155.6586782
51
157.2539184
0
ARC
8
DEFAULT_255_1_234
10
13.0037876
20
166.0062157
40
0.2634121
50
127.8165941
51
148.6302098
0
ARC
8
DEFAULT_255_1_234
10
12.9784345
20
166.0322218
40
0.2273596
50
91.3329982
51
126.7875809
0
ARC
8
DEFAULT_255_1_234
10
12.9860286
20
165.9607195
40
0.299078
50
89.986594
51
92.4688449
0
ARC
8
DEFAULT_255_1_234
10
12.9868681
20
165.9882078
40
0.2715908
50
85.3589899
51
90.1623399
0
ARC
8
DEFAULT_255_1_234
10
12.9953196
20
166.0886164
40
0.1708278
50
78.401942
51
85.4594656
0
ARC
8
DEFAULT_255_1_234
10
13.009808
20
166.1577236
40
0.1002194
50
67.7858312
51
78.5728455
0
ARC
8
DEFAULT_255_1_234
10
13.0205933
20
166.1856887
40
0.0702548
50
63.4835954
51
67.3062642
0
LINE
8
DEFAULT_255_1_234
10
13.1330793
20
165.8068075
11
13.1330793
21
165.8172488
0
LINE
8
DEFAULT_255_1_234
10
13.9242056
20
165.8100202
11
13.9242056
21
165.799579
0
ARC
8
DEFAULT_255_1_234
10
13.6916973
20
165.8204837
40
0.5586273
50
166.3003825
51
180.3317926
0
ARC
8
DEFAULT_255_1_234
10
13.6054132
20
165.8397964
40
0.4702272
50
153.8608245
51
166.0967125
0
ARC
8
DEFAULT_255_1_234
10
13.5388535
20
165.875475
40
0.3947658
50
135.1316692
51
154.253643
0
ARC
8
DEFAULT_255_1_234
10
13.5110094
20
165.9000666
40
0.3576898
50
121.7044358
51
134.776924
0
ARC
8
DEFAULT_255_1_234
10
13.5177088
20
165.8871867
40
0.3721701
50
93.4002104
51
121.5398234
0
ARC
8
DEFAULT_255_1_234
10
13.5272044
20
165.8046228
40
0.4551749
50
89.9706281
51
93.9769836
0
ARC
8
DEFAULT_255_1_234
10
13.5319136
20
165.8436362
40
0.4161854
50
71.3323442
51
90.6161982
0
ARC
8
DEFAULT_255_1_234
10
13.5481832
20
165.9038578
40
0.3539455
50
41.1815071
51
70.707185
0
ARC
8
DEFAULT_255_1_234
10
13.5004232
20
165.8604919
40
0.4184468
50
12.1971897
51
41.3445735
0
ARC
8
DEFAULT_255_1_234
10
13.307824
20
165.8146425
40
0.616399
50
359.5703439
51
12.5804035
0
ARC
8
DEFAULT_255_1_234
10
13.3551315
20
165.7964116
40
0.5690829
50
347.0197749
51
0.3188898
0
ARC
8
DEFAULT_255_1_234
10
13.4509817
20
165.7757808
40
0.4710501
50
334.3504053
51
346.846361
0
ARC
8
DEFAULT_255_1_234
10
13.535524
20
165.7318805
40
0.3758475
50
310.422922
51
334.8045033
0
ARC
8
DEFAULT_255_1_234
10
13.5437066
20
165.7254782
40
0.3656736
50
301.8486886
51
310.097356
0
ARC
8
DEFAULT_255_1_234
10
13.5404792
20
165.7330638
40
0.3738224
50
274.307774
51
301.655379
0
ARC
8
DEFAULT_255_1_234
10
13.5294099
20
165.8208361
40
0.4621997
50
269.9546461
51
274.8588071
0
ARC
8
DEFAULT_255_1_234
10
13.5245033
20
165.7707249
40
0.4121134
50
250.888809
51
270.631312
0
ARC
8
DEFAULT_255_1_234
10
13.5094953
20
165.7148277
40
0.3544073
50
221.1701932
51
250.2227191
0
ARC
8
DEFAULT_255_1_234
10
13.5579107
20
165.7589439
40
0.4198961
50
191.6263638
51
221.3526367
0
ARC
8
DEFAULT_255_1_234
10
13.7467103
20
165.8026329
40
0.6136451
50
179.610213
51
192.0693181
0
ARC
8
DEFAULT_255_1_234
10
13.7890331
20
165.7963633
40
0.5065736
50
179.636298
51
190.6162791
0
ARC
8
DEFAULT_255_1_234
10
13.6247999
20
165.764359
40
0.3392576
50
190.4136628
51
208.7170242
0
ARC
8
DEFAULT_255_1_234
10
13.5737623
20
165.7390366
40
0.2823401
50
209.1867941
51
217.4225593
0
ARC
8
DEFAULT_255_1_234
10
13.5208457
20
165.6924558
40
0.2120636
50
216.1156896
51
265.2575835
0
ARC
8
DEFAULT_255_1_234
10
13.5287606
20
165.7498109
40
0.2698952
50
264.5897417
51
270.0601757
0
ARC
8
DEFAULT_255_1_234
10
13.5320666
20
165.7118185
40
0.2319225
50
269.2532621
51
291.8792492
0
ARC
8
DEFAULT_255_1_234
10
13.5349888
20
165.6940238
40
0.2143562
50
292.9269754
51
323.1776747
0
ARC
8
DEFAULT_255_1_234
10
13.495671
20
165.7288452
40
0.2667346
50
322.2518483
51
323.0930371
0
ARC
8
DEFAULT_255_1_234
10
13.4662369
20
165.746999
40
0.3011886
50
323.6941278
51
343.8493282
0
ARC
8
DEFAULT_255_1_234
10
13.3083912
20
165.795035
40
0.4661719
50
343.5748474
51
355.0079071
0
ARC
8
DEFAULT_255_1_234
10
13.1076157
20
165.8158424
40
0.6680042
50
354.7285225
51
0.1206288
0
ARC
8
DEFAULT_255_1_234
10
13.2844623
20
165.8204751
40
0.4911667
50
359.623636
51
11.2015604
0
ARC
8
DEFAULT_255_1_234
10
13.4378851
20
165.852064
40
0.3345323
50
10.9989411
51
30.8319188
0
ARC
8
DEFAULT_255_1_234
10
13.4774723
20
165.8729297
40
0.2898553
50
31.3008956
51
37.3959224
0
ARC
8
DEFAULT_255_1_234
10
13.5271302
20
165.9148653
40
0.2249582
50
36.5915954
51
62.2442953
0
ARC
8
DEFAULT_255_1_234
10
13.5317755
20
165.9145602
40
0.2231053
50
63.3365542
51
89.7195421
0
ARC
8
DEFAULT_255_1_234
10
13.5274609
20
165.8576884
40
0.2800267
50
88.8936788
51
90.0047485
0
ARC
8
DEFAULT_255_1_234
10
13.5242968
20
165.9149787
40
0.2227586
50
89.1921125
51
114.7099455
0
ARC
8
DEFAULT_255_1_234
10
13.5271732
20
165.9187628
40
0.2205633
50
115.7997161
51
142.2900762
0
ARC
8
DEFAULT_255_1_234
10
13.5710465
20
165.8797658
40
0.2791541
50
141.4658779
51
142.3795754
0
ARC
8
DEFAULT_255_1_234
10
13.5819369
20
165.8754557
40
0.2904292
50
143.0175714
51
163.234115
0
ARC
8
DEFAULT_255_1_234
10
13.7397542
20
165.8255054
40
0.4559523
50
162.9447461
51
174.3732162
0
ARC
8
DEFAULT_255_1_234
10
13.9543356
20
165.8014143
40
0.6718682
50
174.1228657
51
180.1565175
0
LINE
8
DEFAULT_255_1_234
10
15.2020551
20
166.0413343
11
15.2020551
21
165.915236
0
LINE
8
DEFAULT_255_1_234
10
15.2020551
20
165.915236
11
14.6952524
21
165.915236
0
LINE
8
DEFAULT_255_1_234
10
14.6952524
20
165.915236
11
14.6952524
21
165.5007983
0
LINE
8
DEFAULT_255_1_234
10
14.6952524
20
165.5007983
11
15.2839789
21
165.5007983
0
LINE
8
DEFAULT_255_1_234
10
15.2839789
20
165.5007983
11
15.2839789
21
165.3747
0
LINE
8
DEFAULT_255_1_234
10
15.2839789
20
165.3747
11
14.5410431
21
165.3747
0
LINE
8
DEFAULT_255_1_234
10
14.5410431
20
165.3747
11
14.5410431
21
166.5441211
0
LINE
8
DEFAULT_255_1_234
10
14.5410431
20
166.5441211
11
15.2759471
21
166.5441211
0
LINE
8
DEFAULT_255_1_234
10
15.2759471
20
166.5441211
11
15.2759471
21
166.4172196
0
LINE
8
DEFAULT_255_1_234
10
15.2759471
20
166.4172196
11
14.6952524
21
166.4172196
0
LINE
8
DEFAULT_255_1_234
10
14.6952524
20
166.4172196
11
14.6952524
21
166.0413343
0
LINE
8
DEFAULT_255_1_234
10
14.6952524
20
166.0413343
11
15.2020551
21
166.0413343
0
LINE
8
DEFAULT_255_1_234
10
16.3746889
20
166.5441211
11
16.3746889
21
165.3747
0
LINE
8
DEFAULT_255_1_234
10
16.3746889
20
165.3747
11
16.2196764
21
165.3747
0
LINE
8
DEFAULT_255_1_234
10
16.2196764
20
165.3747
11
16.2196764
21
165.915236
0
LINE
8
DEFAULT_255_1_234
10
16.2196764
20
165.915236
11
15.6301468
21
165.915236
0
LINE
8
DEFAULT_255_1_234
10
15.6301468
20
165.915236
11
15.6301468
21
165.3747
0
LINE
8
DEFAULT_255_1_234
10
15.6301468
20
165.3747
11
15.4759374
21
165.3747
0
LINE
8
DEFAULT_255_1_234
10
15.4759374
20
165.3747
11
15.4759374
21
166.5441211
0
LINE
8
DEFAULT_255_1_234
10
15.4759374
20
166.5441211
11
15.6301468
21
166.5441211
0
LINE
8
DEFAULT_255_1_234
10
15.6301468
20
166.5441211
11
15.6301468
21
166.0413343
0
LINE
8
DEFAULT_255_1_234
10
15.6301468
20
166.0413343
11
16.2196764
21
166.0413343
0
LINE
8
DEFAULT_255_1_234
10
16.2196764
20
166.0413343
11
16.2196764
21
166.5441211
0
LINE
8
DEFAULT_255_1_234
10
16.2196764
20
166.5441211
11
16.3746889
21
166.5441211
0
LINE
8
DEFAULT_255_1_234
10
16.703187
20
166.5441211
11
17.035701
21
165.5795093
0
LINE
8
DEFAULT_255_1_234
10
17.035701
20
165.5795093
11
17.3698213
21
166.5441211
0
LINE
8
DEFAULT_255_1_234
10
17.3698213
20
166.5441211
11
17.5384878
21
166.5441211
0
LINE
8
DEFAULT_255_1_234
10
17.5384878
20
166.5441211
11
17.1047739
21
165.3747
0
LINE
8
DEFAULT_255_1_234
10
17.1047739
20
165.3747
11
16.9682344
21
165.3747
0
LINE
8
DEFAULT_255_1_234
10
16.9682344
20
165.3747
11
16.5353237
21
166.5441211
0
LINE
8
DEFAULT_255_1_234
10
16.5353237
20
166.5441211
11
16.703187
21
166.5441211
0
LINE
8
DEFAULT_255_1_234
10
18.0974968
20
166.3433276
11
18.0974968
21
166.0019788
0
LINE
8
DEFAULT_255_1_234
10
18.0974968
20
166.0019788
11
18.4235854
21
166.0019788
0
LINE
8
DEFAULT_255_1_234
10
18.4235854
20
166.0019788
11
18.4235854
21
165.8614233
0
LINE
8
DEFAULT_255_1_234
10
18.4235854
20
165.8614233
11
18.0974968
21
165.8614233
0
LINE
8
DEFAULT_255_1_234
10
18.0974968
20
165.8614233
11
18.0974968
21
165.4919634
0
LINE
8
DEFAULT_255_1_234
10
18.0974968
20
165.4919634
11
17.9481064
21
165.4919634
0
LINE
8
DEFAULT_255_1_234
10
17.9481064
20
165.4919634
11
17.9481064
21
165.8614233
0
LINE
8
DEFAULT_255_1_234
10
17.9481064
20
165.8614233
11
17.6220179
21
165.8614233
0
LINE
8
DEFAULT_255_1_234
10
17.6220179
20
165.8614233
11
17.6220179
21
166.0019788
0
LINE
8
DEFAULT_255_1_234
10
17.6220179
20
166.0019788
11
17.9481064
21
166.0019788
0
LINE
8
DEFAULT_255_1_234
10
17.9481064
20
166.0019788
11
17.9481064
21
166.3433276
0
LINE
8
DEFAULT_255_1_234
10
17.9481064
20
166.3433276
11
18.0974968
21
166.3433276
0
LINE
8
DEFAULT_255_2_778
10
9.3932417
20
148.0343324
11
10.7161417
21
148.0343324
0
LINE
8
DEFAULT_255_2_778
10
10.7161417
20
148.0343324
11
10.7161417
21
79.2426324
0
LINE
8
DEFAULT_255_2_778
10
9.3932834
20
79.2427333
11
12.0390834
21
79.2427333
0
LINE
8
DEFAULT_255_2_778
10
12.0390834
20
79.2427333
11
12.0390834
21
73.9510333
0
LINE
8
DEFAULT_255_2_778
10
12.0390834
20
73.9510333
11
9.3932834
21
73.9510333
0
LINE
8
DEFAULT_255_2_778
10
9.3932834
20
73.9510333
11
9.3932834
21
79.2427333
0
LINE
8
DEFAULT_255_2_778
10
10.187
20
74.4802666
11
10.187
21
78.7135666
0
LINE
8
DEFAULT_255_2_778
10
9.9224167
20
77.919875
11
10.1870167
21
78.713575
0
LINE
8
DEFAULT_255_2_778
10
10.1870167
20
78.713575
11
10.4516167
21
77.919875
0
LINE
8
DEFAULT_255_2_778
10
10.4516167
20
77.919875
11
9.9224167
21
77.919875
0
LINE
8
DEFAULT_255_2_778
10
11.2453
20
78.7135666
11
11.2453
21
74.4802666
0
LINE
8
DEFAULT_255_2_778
10
10.9807167
20
75.273975
11
11.2453167
21
74.480275
0
LINE
8
DEFAULT_255_2_778
10
11.2453167
20
74.480275
11
11.5099167
21
75.273975
0
LINE
8
DEFAULT_255_2_778
10
11.5099167
20
75.273975
11
10.9807167
21
75.273975
0
LINE
8
DEFAULT_255_2_778
10
10.7161417
20
73.9510324
11
10.7161417
21
5.1593324
0
LINE
8
DEFAULT_255_2_778
10
10.7161417
20
5.1593324
11
9.3932417
21
5.1593324
0
LINE
8
DEFAULT_255_1_234
10
4.9274119
20
163.5116792
11
4.9274119
21
163.3904
0
LINE
8
DEFAULT_255_1_234
10
4.9274119
20
163.3904
11
4.161184
21
163.3904
0
LINE
8
DEFAULT_255_1_234
10
4.161184
20
163.3904
11
4.161184
21
163.4972221
0
LINE
8
DEFAULT_255_1_234
10
4.161184
20
163.4972221
11
4.5659836
21
163.9469995
0
LINE
8
DEFAULT_255_1_234
10
4.2872823
20
164.2152595
11
4.1386952
21
164.2152595
0
LINE
8
DEFAULT_255_1_234
10
4.6535296
20
163.8514218
11
4.3402918
21
163.5116792
0
LINE
8
DEFAULT_255_1_234
10
4.3402918
20
163.5116792
11
4.9274119
21
163.5116792
0
ARC
8
DEFAULT_255_1_234
10
3.216967
20
165.1399527
40
1.8008286
50
318.5132453
51
320.7828378
0
ARC
8
DEFAULT_255_1_234
10
3.7456644
20
164.7096426
40
1.1191493
50
320.7372736
51
323.9737074
0
ARC
8
DEFAULT_255_1_234
10
4.1376501
20
164.4256361
40
0.6350923
50
323.8961724
51
328.6421089
0
ARC
8
DEFAULT_255_1_234
10
4.3423096
20
164.2994031
40
0.3946393
50
328.8299013
51
331.789948
0
ARC
8
DEFAULT_255_1_234
10
4.4420274
20
164.2479509
40
0.2824501
50
331.4255242
51
352.9364833
0
ARC
8
DEFAULT_255_1_234
10
4.4556775
20
164.2448976
40
0.2685315
50
353.2248685
51
0.0169286
0
ARC
8
DEFAULT_255_1_234
10
4.4766652
20
164.247195
40
0.2475536
50
359.4866256
51
15.9339782
0
ARC
8
DEFAULT_255_1_234
10
4.5273637
20
164.2608286
40
0.1950618
50
16.1714718
51
43.5284424
0
ARC
8
DEFAULT_255_1_234
10
4.5350946
20
164.2685573
40
0.184134
50
43.4415429
51
83.1661404
0
ARC
8
DEFAULT_255_1_234
10
4.5216864
20
164.1948771
40
0.258926
50
82.160215
51
90.1505798
0
ARC
8
DEFAULT_255_1_234
10
4.5185291
20
164.1411865
40
0.3126255
50
89.5460705
51
102.5418777
0
ARC
8
DEFAULT_255_1_234
10
4.4942377
20
164.2442665
40
0.2067346
50
102.1739365
51
129.2061916
0
ARC
8
DEFAULT_255_1_234
10
4.4863449
20
164.2567094
40
0.1921118
50
129.7279328
51
135.7542026
0
ARC
8
DEFAULT_255_1_234
10
4.4984977
20
164.2470045
40
0.2075944
50
136.175737
51
166.3674722
0
ARC
8
DEFAULT_255_1_234
10
4.5991896
20
164.2200182
40
0.3118201
50
165.9092917
51
178.8683903
0
ARC
8
DEFAULT_255_1_234
10
4.6856757
20
164.2153179
40
0.3983935
50
178.438168
51
180.0083905
0
ARC
8
DEFAULT_255_1_234
10
4.5455359
20
164.2192231
40
0.4068601
50
163.2878735
51
180.5581814
0
ARC
8
DEFAULT_255_1_234
10
4.4653621
20
164.241284
40
0.3237344
50
133.454115
51
162.9470031
0
ARC
8
DEFAULT_255_1_234
10
4.4832162
20
164.2223
40
0.349795
50
100.7869394
51
133.4384016
0
ARC
8
DEFAULT_255_1_234
10
4.5179934
20
164.0674319
40
0.5084616
50
89.6605301
51
101.3704185
0
ARC
8
DEFAULT_255_1_234
10
4.5246273
20
164.0735496
40
0.502348
50
78.2171172
51
90.4130393
0
ARC
8
DEFAULT_255_1_234
10
4.5601351
20
164.2359637
40
0.3361092
50
55.9268222
51
78.4888551
0
ARC
8
DEFAULT_255_1_234
10
4.5797791
20
164.2698324
40
0.2970617
50
47.9292255
51
55.4054003
0
ARC
8
DEFAULT_255_1_234
10
4.5899352
20
164.2801502
40
0.2825983
50
4.3347696
51
48.0560701
0
ARC
8
DEFAULT_255_1_234
10
4.4803745
20
164.2631601
40
0.393225
50
359.925209
51
5.5967654
0
ARC
8
DEFAULT_255_1_234
10
4.5232637
20
164.2687816
40
0.3503892
50
337.8914096
51
358.9967724
0
ARC
8
DEFAULT_255_1_234
10
4.2519049
20
164.3734706
40
0.6412172
50
326.9135351
51
338.3505194
0
ARC
8
DEFAULT_255_1_234
10
3.8533353
20
164.6289284
40
1.1146189
50
319.6472867
51
327.095818
0
ARC
8
DEFAULT_255_1_234
10
3.4700356
20
164.9451
40
1.6114559
50
317.2586784
51
319.9046139
0
LINE
8
DEFAULT_255_1_234
10
5.7121127
20
164.5598211
11
5.7121127
21
163.783152
0
LINE
8
DEFAULT_255_1_234
10
5.7121127
20
163.783152
11
5.8743538
21
163.783152
0
LINE
8
DEFAULT_255_1_234
10
5.8743538
20
163.783152
11
5.8743538
21
163.6618728
0
LINE
8
DEFAULT_255_1_234
10
5.8743538
20
163.6618728
11
5.7121127
21
163.6618728
0
LINE
8
DEFAULT_255_1_234
10
5.7121127
20
163.6618728
11
5.7121127
21
163.3904
0
LINE
8
DEFAULT_255_1_234
10
5.7121127
20
163.3904
11
5.5627224
21
163.3904
0
LINE
8
DEFAULT_255_1_234
10
5.5627224
20
163.3904
11
5.5627224
21
163.6618728
0
LINE
8
DEFAULT_255_1_234
10
5.5627224
20
163.6618728
11
5.0302181
21
163.6618728
0
LINE
8
DEFAULT_255_1_234
10
5.0302181
20
163.6618728
11
5.0302181
21
163.7494187
0
LINE
8
DEFAULT_255_1_234
10
5.0302181
20
163.7494187
11
5.5538875
21
164.5598211
0
LINE
8
DEFAULT_255_1_234
10
5.5538875
20
164.5598211
11
5.7121127
21
164.5598211
0
LINE
8
DEFAULT_255_1_234
10
5.5450525
20
164.3244912
11
5.1988846
21
163.783152
0
LINE
8
DEFAULT_255_1_234
10
5.1988846
20
163.783152
11
5.5627224
21
163.783152
0
LINE
8
DEFAULT_255_1_234
10
5.5627224
20
163.783152
11
5.5627224
21
164.3566181
0
LINE
8
DEFAULT_255_1_234
10
5.5627224
20
164.3566181
11
5.5450525
21
164.3244912
0
LINE
8
DEFAULT_255_1_234
10
6.101652
20
164.5598211
11
6.434166
21
163.5952093
0
LINE
8
DEFAULT_255_1_234
10
6.434166
20
163.5952093
11
6.7682863
21
164.5598211
0
LINE
8
DEFAULT_255_1_234
10
6.7682863
20
164.5598211
11
6.9369528
21
164.5598211
0
LINE
8
DEFAULT_255_1_234
10
6.9369528
20
164.5598211
11
6.5032389
21
163.3904
0
LINE
8
DEFAULT_255_1_234
10
6.5032389
20
163.3904
11
6.3666994
21
163.3904
0
LINE
8
DEFAULT_255_1_234
10
6.3666994
20
163.3904
11
5.9337887
21
164.5598211
0
LINE
8
DEFAULT_255_1_234
10
5.9337887
20
164.5598211
11
6.101652
21
164.5598211
0
LINE
8
DEFAULT_255_1_234
10
4.811023
20
5.0114663
11
4.9660355
21
5.0114663
0
LINE
8
DEFAULT_255_1_234
10
4.0656777
20
5.1704947
11
4.0656777
21
5.2829391
0
LINE
8
DEFAULT_255_1_234
10
4.9660355
20
5.4339357
11
4.811023
21
5.4339357
0
LINE
8
DEFAULT_255_1_234
10
4.2206902
20
5.2789232
11
4.2206902
21
5.1656757
0
ARC
8
DEFAULT_255_1_234
10
4.4179742
20
5.0711846
40
0.5513052
50
340.1774281
51
353.7814284
0
ARC
8
DEFAULT_255_1_234
10
4.5751095
20
5.0126582
40
0.3836379
50
311.4558989
51
340.4421614
0
ARC
8
DEFAULT_255_1_234
10
4.5717763
20
5.0237528
40
0.3941894
50
282.4333181
51
310.7513653
0
ARC
8
DEFAULT_255_1_234
10
4.5278502
20
5.2052679
40
0.5809175
50
269.9358511
51
282.809604
0
ARC
8
DEFAULT_255_1_234
10
4.5226568
20
5.3510212
40
0.7266847
50
270.0021091
51
270.3581957
0
ARC
8
DEFAULT_255_1_234
10
4.5173985
20
5.0909585
40
0.4666519
50
250.7884749
51
270.6489167
0
ARC
8
DEFAULT_255_1_234
10
4.500582
20
5.0272319
40
0.4009729
50
219.3627325
51
250.0611886
0
ARC
8
DEFAULT_255_1_234
10
4.5835031
20
5.0977042
40
0.5097822
50
193.5479632
51
219.5756669
0
ARC
8
DEFAULT_255_1_234
10
4.8206652
20
5.1592919
40
0.7547848
50
181.1218675
51
193.87563
0
ARC
8
DEFAULT_255_1_234
10
5.0276833
20
5.170358
40
0.9620055
50
179.9918545
51
181.5394234
0
ARC
8
DEFAULT_255_1_234
10
4.8425935
20
5.2866788
40
0.7769248
50
169.5837241
51
180.2757934
0
ARC
8
DEFAULT_255_1_234
10
4.6588873
20
5.3206229
40
0.590109
50
155.0365899
51
169.6003176
0
ARC
8
DEFAULT_255_1_234
10
4.5453337
20
5.3753677
40
0.4640625
50
136.783148
51
155.2472683
0
ARC
8
DEFAULT_255_1_234
10
4.5063814
20
5.4084562
40
0.4130255
50
121.7633186
51
136.428115
0
ARC
8
DEFAULT_255_1_234
10
4.5198776
20
5.3835227
40
0.4413323
50
95.6459699
51
121.5490577
0
ARC
8
DEFAULT_255_1_234
10
4.5356058
20
5.2726949
40
0.55319
50
89.924208
51
96.1377933
0
ARC
8
DEFAULT_255_1_234
10
4.5406491
20
5.2845542
40
0.5413475
50
76.6779277
51
90.4563316
0
ARC
8
DEFAULT_255_1_234
10
4.5800114
20
5.4436114
40
0.3775041
50
47.485847
51
76.9287264
0
ARC
8
DEFAULT_255_1_234
10
4.5653087
20
5.4336159
40
0.3948286
50
16.5424086
51
46.8933463
0
ARC
8
DEFAULT_255_1_234
10
4.4045244
20
5.3807861
40
0.564021
50
5.4072051
51
17.0365086
0
ARC
8
DEFAULT_255_1_234
10
4.2606261
20
5.3576679
40
0.5556559
50
7.8891745
51
15.9239216
0
ARC
8
DEFAULT_255_1_234
10
4.4593274
20
5.4153631
40
0.3487515
50
15.7653144
51
27.9410532
0
ARC
8
DEFAULT_255_1_234
10
4.5697492
20
5.474479
40
0.2235026
50
27.8166557
51
46.4008329
0
ARC
8
DEFAULT_255_1_234
10
4.5747135
20
5.4739082
40
0.2205286
50
47.4371857
51
75.0698205
0
ARC
8
DEFAULT_255_1_234
10
4.5438529
20
5.3664765
40
0.3322915
50
74.7008593
51
87.8124495
0
ARC
8
DEFAULT_255_1_234
10
4.5365217
20
5.2608844
40
0.4380987
50
87.3814673
51
90.0240855
0
ARC
8
DEFAULT_255_1_234
10
4.532676
20
5.3786291
40
0.3203749
50
89.3451631
51
108.5745436
0
ARC
8
DEFAULT_255_1_234
10
4.5189865
20
5.4299908
40
0.2673494
50
109.2998449
51
143.3037509
0
ARC
8
DEFAULT_255_1_234
10
4.5951938
20
5.3713881
40
0.3634757
50
143.0753173
51
163.1916937
0
ARC
8
DEFAULT_255_1_234
10
4.7903666
20
5.3097967
40
0.5681262
50
162.9373603
51
174.6208611
0
ARC
8
DEFAULT_255_1_234
10
5.0529708
20
5.281001
40
0.8322832
50
174.3419979
51
180.1430411
0
ARC
8
DEFAULT_255_1_234
10
4.9598864
20
5.1615698
40
0.7392076
50
179.6817502
51
189.150529
0
ARC
8
DEFAULT_255_1_234
10
4.7098112
20
5.119919
40
0.4856932
50
188.9910863
51
203.5773039
0
ARC
8
DEFAULT_255_1_234
10
4.6018445
20
5.0751211
40
0.3688271
50
203.9077269
51
215.1312379
0
ARC
8
DEFAULT_255_1_234
10
4.5095539
20
5.0035941
40
0.2522457
50
213.9071664
51
263.8849284
0
ARC
8
DEFAULT_255_1_234
10
4.5220868
20
5.0820518
40
0.3316174
50
263.1758525
51
270.1031083
0
ARC
8
DEFAULT_255_1_234
10
4.525296
20
5.2067365
40
0.4563091
50
269.6719807
51
279.0609165
0
ARC
8
DEFAULT_255_1_234
10
4.5519728
20
5.0454907
40
0.2928759
50
278.8750225
51
293.6346586
0
ARC
8
DEFAULT_255_1_234
10
4.5839936
20
4.97029
40
0.2111472
50
293.8553404
51
310.0518804
0
ARC
8
DEFAULT_255_1_234
10
4.584479
20
4.9640516
40
0.2060917
50
311.0646779
51
332.0108348
0
ARC
8
DEFAULT_255_1_234
10
4.4652517
20
5.0297978
40
0.3422352
50
331.6588543
51
343.2878891
0
ARC
8
DEFAULT_255_1_234
10
4.2590032
20
5.0931798
40
0.5580003
50
343.1446044
51
351.010618
0
ARC
8
DEFAULT_255_1_234
10
4.1048678
20
5.1212871
40
0.7146438
50
350.7157277
51
351.1602153
0
LINE
8
DEFAULT_255_1_234
10
5.9041426
20
4.7616792
11
5.9041426
21
4.6404
0
LINE
8
DEFAULT_255_1_234
10
5.9041426
20
4.6404
11
5.1379147
21
4.6404
0
LINE
8
DEFAULT_255_1_234
10
5.1379147
20
4.6404
11
5.1379147
21
4.7472221
0
LINE
8
DEFAULT_255_1_234
10
5.1379147
20
4.7472221
11
5.5427144
21
5.1969995
0
LINE
8
DEFAULT_255_1_234
10
5.264013
20
5.4652595
11
5.1154259
21
5.4652595
0
LINE
8
DEFAULT_255_1_234
10
5.6302603
20
5.1014218
11
5.3170225
21
4.7616792
0
LINE
8
DEFAULT_255_1_234
10
5.3170225
20
4.7616792
11
5.9041426
21
4.7616792
0
ARC
8
DEFAULT_255_1_234
10
4.1936977
20
6.3899527
40
1.8008286
50
318.5132453
51
320.7828378
0
ARC
8
DEFAULT_255_1_234
10
4.7223951
20
5.9596426
40
1.1191493
50
320.7372736
51
323.9737074
0
ARC
8
DEFAULT_255_1_234
10
5.1143808
20
5.6756361
40
0.6350923
50
323.8961724
51
328.6421089
0
ARC
8
DEFAULT_255_1_234
10
5.3190403
20
5.5494031
40
0.3946393
50
328.8299013
51
331.789948
0
ARC
8
DEFAULT_255_1_234
10
5.4187582
20
5.4979509
40
0.2824501
50
331.4255242
51
352.9364833
0
ARC
8
DEFAULT_255_1_234
10
5.4324082
20
5.4948976
40
0.2685315
50
353.2248685
51
0.0169286
0
ARC
8
DEFAULT_255_1_234
10
5.4533959
20
5.497195
40
0.2475536
50
359.4866256
51
15.9339782
0
ARC
8
DEFAULT_255_1_234
10
5.5040944
20
5.5108286
40
0.1950618
50
16.1714718
51
43.5284424
0
ARC
8
DEFAULT_255_1_234
10
5.5118253
20
5.5185573
40
0.184134
50
43.4415429
51
83.1661404
0
ARC
8
DEFAULT_255_1_234
10
5.4984171
20
5.4448771
40
0.258926
50
82.160215
51
90.1505798
0
ARC
8
DEFAULT_255_1_234
10
5.4952599
20
5.3911865
40
0.3126255
50
89.5460705
51
102.5418777
0
ARC
8
DEFAULT_255_1_234
10
5.4709685
20
5.4942665
40
0.2067346
50
102.1739365
51
129.2061916
0
ARC
8
DEFAULT_255_1_234
10
5.4630756
20
5.5067094
40
0.1921118
50
129.7279328
51
135.7542026
0
ARC
8
DEFAULT_255_1_234
10
5.4752284
20
5.4970045
40
0.2075944
50
136.175737
51
166.3674722
0
ARC
8
DEFAULT_255_1_234
10
5.5759203
20
5.4700182
40
0.3118201
50
165.9092917
51
178.8683903
0
ARC
8
DEFAULT_255_1_234
10
5.6624065
20
5.4653179
40
0.3983935
50
178.438168
51
180.0083905
0
ARC
8
DEFAULT_255_1_234
10
5.5222667
20
5.4692231
40
0.4068601
50
163.2878735
51
180.5581814
0
ARC
8
DEFAULT_255_1_234
10
5.4420928
20
5.491284
40
0.3237344
50
133.454115
51
162.9470031
0
ARC
8
DEFAULT_255_1_234
10
5.4599469
20
5.4723
40
0.349795
50
100.7869394
51
133.4384016
0
ARC
8
DEFAULT_255_1_234
10
5.4947241
20
5.3174319
40
0.5084616
50
89.6605301
51
101.3704185
0
ARC
8
DEFAULT_255_1_234
10
5.501358
20
5.3235496
40
0.502348
50
78.2171172
51
90.4130393
0
ARC
8
DEFAULT_255_1_234
10
5.5368658
20
5.4859637
40
0.3361092
50
55.9268222
51
78.4888551
0
ARC
8
DEFAULT_255_1_234
10
5.5565098
20
5.5198324
40
0.2970617
50
47.9292255
51
55.4054003
0
ARC
8
DEFAULT_255_1_234
10
5.5666659
20
5.5301502
40
0.2825983
50
4.3347696
51
48.0560701
0
ARC
8
DEFAULT_255_1_234
10
5.4571052
20
5.5131601
40
0.393225
50
359.925209
51
5.5967654
0
ARC
8
DEFAULT_255_1_234
10
5.4999944
20
5.5187816
40
0.3503892
50
337.8914096
51
358.9967724
0
ARC
8
DEFAULT_255_1_234
10
5.2286356
20
5.6234706
40
0.6412172
50
326.9135351
51
338.3505194
0
ARC
8
DEFAULT_255_1_234
10
4.830066
20
5.8789284
40
1.1146189
50
319.6472867
51
327.095818
0
ARC
8
DEFAULT_255_1_234
10
4.4467663
20
6.1951
40
1.6114559
50
317.2586784
51
319.9046139
0
LINE
8
DEFAULT_255_1_234
10
4.5473137
20
13.7529433
11
4.5473137
21
12.5779
0
LINE
8
DEFAULT_255_1_234
10
4.5473137
20
12.5779
11
4.3979234
21
12.5779
0
LINE
8
DEFAULT_255_1_234
10
4.3979234
20
12.5779
11
4.3979234
21
13.5682133
0
LINE
8
DEFAULT_255_1_234
10
4.3979234
20
13.5682133
11
4.0983396
21
13.4581785
0
LINE
8
DEFAULT_255_1_234
10
4.0983396
20
13.4581785
11
4.0983396
21
13.5931117
0
LINE
8
DEFAULT_255_1_234
10
4.0983396
20
13.5931117
11
4.5240217
21
13.7529433
0
LINE
8
DEFAULT_255_1_234
10
4.5240217
20
13.7529433
11
4.5473137
21
13.7529433
0
LINE
8
DEFAULT_255_1_234
10
5.1697734
20
13.1336963
11
5.0509037
21
13.1642169
0
LINE
8
DEFAULT_255_1_234
10
5.0509037
20
13.1642169
11
5.1103386
21
13.7473211
0
LINE
8
DEFAULT_255_1_234
10
5.1103386
20
13.7473211
11
5.7095063
21
13.7473211
0
LINE
8
DEFAULT_255_1_234
10
5.7095063
20
13.7473211
11
5.7095063
21
13.6099784
0
LINE
8
DEFAULT_255_1_234
10
5.7095063
20
13.6099784
11
5.2364369
21
13.6099784
0
LINE
8
DEFAULT_255_1_234
10
5.2364369
20
13.6099784
11
5.2010972
21
13.2911184
0
LINE
8
DEFAULT_255_1_234
10
5.0091387
20
12.8855156
11
5.1496941
21
12.8855156
0
LINE
8
DEFAULT_255_1_234
10
5.209129
20
13.1658232
11
5.1697734
21
13.1336963
0
ARC
8
DEFAULT_255_1_234
10
5.3865756
20
12.973123
40
0.3681349
50
93.7182161
51
120.2538958
0
ARC
8
DEFAULT_255_1_234
10
5.3960019
20
12.8923394
40
0.449379
50
89.9660152
51
94.2496022
0
ARC
8
DEFAULT_255_1_234
10
5.4000753
20
12.9512549
40
0.390482
50
73.8043271
51
90.5585896
0
ARC
8
DEFAULT_255_1_234
10
5.423565
20
13.0370602
40
0.3015334
50
41.3071453
51
73.5430202
0
ARC
8
DEFAULT_255_1_234
10
5.3819477
20
13.0012324
40
0.3564457
50
13.5075983
51
41.2174222
0
ARC
8
DEFAULT_255_1_234
10
5.2177681
20
12.9582486
40
0.5261351
50
1.1331335
51
13.8829381
0
ARC
8
DEFAULT_255_1_234
10
5.076605
20
12.9506665
40
0.6674378
50
359.9919444
51
1.544251
0
ARC
8
DEFAULT_255_1_234
10
5.2042876
20
12.946528
40
0.5397702
50
347.8572367
51
0.4293338
0
ARC
8
DEFAULT_255_1_234
10
5.3793194
20
12.9068736
40
0.3603188
50
323.673004
51
348.1672506
0
ARC
8
DEFAULT_255_1_234
10
5.4087702
20
12.8889168
40
0.3259678
50
316.8171152
51
323.1492751
0
ARC
8
DEFAULT_255_1_234
10
5.4148891
20
12.885246
40
0.3189975
50
281.8396411
51
316.5457803
0
ARC
8
DEFAULT_255_1_234
10
5.3773155
20
13.0407762
40
0.4789527
50
269.5770101
51
282.4214771
0
ARC
8
DEFAULT_255_1_234
10
5.3701966
20
13.0194125
40
0.45759
50
256.2427136
51
270.4486331
0
ARC
8
DEFAULT_255_1_234
10
5.3402869
20
12.8994229
40
0.3339303
50
228.9023911
51
256.3314342
0
ARC
8
DEFAULT_255_1_234
10
5.3329101
20
12.8877746
40
0.32031
50
193.753695
51
228.5271154
0
ARC
8
DEFAULT_255_1_234
10
5.4567055
20
12.92408
40
0.4492253
50
184.924711
51
194.497588
0
ARC
8
DEFAULT_255_1_234
10
5.4759622
20
12.9276591
40
0.3289787
50
187.3600538
51
198.6732863
0
ARC
8
DEFAULT_255_1_234
10
5.3709916
20
12.8912674
40
0.217884
50
198.4451669
51
217.794479
0
ARC
8
DEFAULT_255_1_234
10
5.3414091
20
12.8703085
40
0.1816698
50
218.2887171
51
228.5612368
0
ARC
8
DEFAULT_255_1_234
10
5.3511878
20
12.8834963
40
0.1980329
50
228.9654866
51
258.1234728
0
ARC
8
DEFAULT_255_1_234
10
5.3717588
20
12.9715833
40
0.2884748
50
257.7258293
51
270.401361
0
ARC
8
DEFAULT_255_1_234
10
5.3762474
20
12.9270821
40
0.2439788
50
269.4204404
51
286.4209037
0
ARC
8
DEFAULT_255_1_234
10
5.3910962
20
12.8731657
40
0.1880666
50
286.7251356
51
320.600362
0
ARC
8
DEFAULT_255_1_234
10
5.3527787
20
12.9042595
40
0.2374121
50
320.6712579
51
344.5441685
0
ARC
8
DEFAULT_255_1_234
10
5.2371113
20
12.9382045
40
0.3579479
50
344.2412205
51
356.7357071
0
ARC
8
DEFAULT_255_1_234
10
5.1122262
20
12.9485444
40
0.4832297
50
356.3548756
51
0.0500261
0
ARC
8
DEFAULT_255_1_234
10
5.2458771
20
12.951665
40
0.3495889
50
359.5576869
51
12.953486
0
ARC
8
DEFAULT_255_1_234
10
5.3513668
20
12.9772434
40
0.2410532
50
12.6490276
51
41.6081334
0
ARC
8
DEFAULT_255_1_234
10
5.3744039
20
12.9968321
40
0.2108218
50
41.7850273
51
85.9892764
0
ARC
8
DEFAULT_255_1_234
10
5.3620776
20
12.9155462
40
0.2928454
50
84.6957577
51
90.0676183
0
ARC
8
DEFAULT_255_1_234
10
5.359726
20
12.8486716
40
0.3597255
50
89.6804936
51
99.1614436
0
ARC
8
DEFAULT_255_1_234
10
5.3391891
20
12.9714131
40
0.235281
50
98.9830931
51
113.8908934
0
ARC
8
DEFAULT_255_1_234
10
5.3162301
20
13.0255587
40
0.176479
50
114.1950727
51
127.3641004
0
LINE
8
DEFAULT_255_1_234
10
4.6531137
20
21.6904433
11
4.6531137
21
20.5154
0
LINE
8
DEFAULT_255_1_234
10
4.6531137
20
20.5154
11
4.5037234
21
20.5154
0
LINE
8
DEFAULT_255_1_234
10
4.5037234
20
20.5154
11
4.5037234
21
21.5057133
0
LINE
8
DEFAULT_255_1_234
10
4.5037234
20
21.5057133
11
4.2041396
21
21.3956785
0
LINE
8
DEFAULT_255_1_234
10
4.2041396
20
21.3956785
11
4.2041396
21
21.5306117
0
LINE
8
DEFAULT_255_1_234
10
4.2041396
20
21.5306117
11
4.6298217
21
21.6904433
0
LINE
8
DEFAULT_255_1_234
10
4.6298217
20
21.6904433
11
4.6531137
21
21.6904433
0
LINE
8
DEFAULT_255_1_234
10
5.7157127
20
21.6848211
11
5.7157127
21
20.908152
0
LINE
8
DEFAULT_255_1_234
10
5.7157127
20
20.908152
11
5.8779538
21
20.908152
0
LINE
8
DEFAULT_255_1_234
10
5.8779538
20
20.908152
11
5.8779538
21
20.7868728
0
LINE
8
DEFAULT_255_1_234
10
5.8779538
20
20.7868728
11
5.7157127
21
20.7868728
0
LINE
8
DEFAULT_255_1_234
10
5.7157127
20
20.7868728
11
5.7157127
21
20.5154
0
LINE
8
DEFAULT_255_1_234
10
5.7157127
20
20.5154
11
5.5663224
21
20.5154
0
LINE
8
DEFAULT_255_1_234
10
5.5663224
20
20.5154
11
5.5663224
21
20.7868728
0
LINE
8
DEFAULT_255_1_234
10
5.5663224
20
20.7868728
11
5.0338181
21
20.7868728
0
LINE
8
DEFAULT_255_1_234
10
5.0338181
20
20.7868728
11
5.0338181
21
20.8744187
0
LINE
8
DEFAULT_255_1_234
10
5.0338181
20
20.8744187
11
5.5574875
21
21.6848211
0
LINE
8
DEFAULT_255_1_234
10
5.5574875
20
21.6848211
11
5.7157127
21
21.6848211
0
LINE
8
DEFAULT_255_1_234
10
5.5486525
20
21.4494912
11
5.2024846
21
20.908152
0
LINE
8
DEFAULT_255_1_234
10
5.2024846
20
20.908152
11
5.5663224
21
20.908152
0
LINE
8
DEFAULT_255_1_234
10
5.5663224
20
20.908152
11
5.5663224
21
21.4816181
0
LINE
8
DEFAULT_255_1_234
10
5.5663224
20
21.4816181
11
5.5486525
21
21.4494912
0
LINE
8
DEFAULT_255_1_234
10
4.5473137
20
29.6279433
11
4.5473137
21
28.4529
0
LINE
8
DEFAULT_255_1_234
10
4.5473137
20
28.4529
11
4.3979234
21
28.4529
0
LINE
8
DEFAULT_255_1_234
10
4.3979234
20
28.4529
11
4.3979234
21
29.4432133
0
LINE
8
DEFAULT_255_1_234
10
4.3979234
20
29.4432133
11
4.0983396
21
29.3331785
0
LINE
8
DEFAULT_255_1_234
10
4.0983396
20
29.3331785
11
4.0983396
21
29.4681117
0
LINE
8
DEFAULT_255_1_234
10
4.0983396
20
29.4681117
11
4.5240217
21
29.6279433
0
LINE
8
DEFAULT_255_1_234
10
4.5240217
20
29.6279433
11
4.5473137
21
29.6279433
0
LINE
8
DEFAULT_255_1_234
10
5.1986877
20
28.9886169
11
5.1986877
21
29.1098962
0
LINE
8
DEFAULT_255_1_234
10
5.1986877
20
29.1098962
11
5.3103289
21
29.1098962
0
LINE
8
DEFAULT_255_1_234
10
5.1199767
20
29.3155087
11
4.9713895
21
29.3155087
0
LINE
8
DEFAULT_255_1_234
10
4.9609482
20
28.7613188
11
5.1103386
21
28.7613188
0
LINE
8
DEFAULT_255_1_234
10
5.3103289
20
28.9886169
11
5.1986877
21
28.9886169
0
ARC
8
DEFAULT_255_1_234
10
5.3074155
20
29.4491713
40
0.3392876
50
270.4919872
51
281.8951556
0
ARC
8
DEFAULT_255_1_234
10
5.3315417
20
29.3389702
40
0.2264817
50
281.6691735
51
301.2943132
0
ARC
8
DEFAULT_255_1_234
10
5.3485627
20
29.3078304
40
0.1910381
50
301.7833094
51
311.7545298
0
ARC
8
DEFAULT_255_1_234
10
5.3577203
20
29.2976748
40
0.1773635
50
311.7323931
51
354.2802411
0
ARC
8
DEFAULT_255_1_234
10
5.2850828
20
29.3101722
40
0.2509385
50
353.0937916
51
0.1181479
0
ARC
8
DEFAULT_255_1_234
10
5.2389613
20
29.3149386
40
0.2970898
50
359.1805295
51
15.0453146
0
ARC
8
DEFAULT_255_1_234
10
5.373545
20
29.3541992
40
0.1569564
50
13.9577229
51
77.6713066
0
ARC
8
DEFAULT_255_1_234
10
5.3348979
20
29.2156949
40
0.3006298
50
76.1116566
51
90.7026153
0
ARC
8
DEFAULT_255_1_234
10
5.3289817
20
29.2430545
40
0.2732568
50
89.5324876
51
103.531937
0
ARC
8
DEFAULT_255_1_234
10
5.3089261
20
29.3229884
40
0.1908508
50
103.2931773
51
133.5619022
0
ARC
8
DEFAULT_255_1_234
10
5.304475
20
29.3289375
40
0.1834746
50
133.8349307
51
173.5344437
0
ARC
8
DEFAULT_255_1_234
10
5.3767793
20
29.3161213
40
0.2568033
50
172.5096846
51
180.1366907
0
ARC
8
DEFAULT_255_1_234
10
5.2816687
20
29.3195622
40
0.3103056
50
155.3484492
51
180.7484736
0
ARC
8
DEFAULT_255_1_234
10
5.2767776
20
29.3166846
40
0.3070957
50
131.5744599
51
154.4798489
0
ARC
8
DEFAULT_255_1_234
10
5.3080923
20
29.285031
40
0.3515643
50
96.9875458
51
131.9690667
0
ARC
8
DEFAULT_255_1_234
10
5.3300403
20
29.1604636
40
0.4779224
50
89.8596053
51
97.7825159
0
ARC
8
DEFAULT_255_1_234
10
5.3348466
20
29.1342616
40
0.5041361
50
78.3655447
51
90.4131539
0
ARC
8
DEFAULT_255_1_234
10
5.3706384
20
29.3001887
40
0.3344039
50
56.6229102
51
78.638727
0
ARC
8
DEFAULT_255_1_234
10
5.3921328
20
29.3377805
40
0.2912001
50
47.0253525
51
56.0854072
0
ARC
8
DEFAULT_255_1_234
10
5.3941108
20
29.3417223
40
0.2869704
50
10.9208013
51
46.7778124
0
ARC
8
DEFAULT_255_1_234
10
5.2577174
20
29.3101857
40
0.426899
50
359.6364486
51
11.6087304
0
ARC
8
DEFAULT_255_1_234
10
5.4412018
20
29.3086752
40
0.243409
50
332.3549906
51
359.7179418
0
ARC
8
DEFAULT_255_1_234
10
5.376162
20
29.3395142
40
0.3153459
50
325.2333722
51
332.8745602
0
ARC
8
DEFAULT_255_1_234
10
5.3914244
20
29.3288828
40
0.2967456
50
292.9802137
51
325.2392345
0
ARC
8
DEFAULT_255_1_234
10
5.3639617
20
29.3822863
40
0.3566604
50
292.5402179
51
293.6924929
0
ARC
8
DEFAULT_255_1_234
10
5.4032213
20
28.7368091
40
0.3307468
50
57.6435486
51
72.8625112
0
ARC
8
DEFAULT_255_1_234
10
5.4386713
20
28.7942549
40
0.2632492
50
36.7248896
51
57.4697979
0
ARC
8
DEFAULT_255_1_234
10
5.4375346
20
28.795522
40
0.2634081
50
8.0545065
51
36.356114
0
ARC
8
DEFAULT_255_1_234
10
5.3512531
20
28.7800174
40
0.3510261
50
359.8320645
51
8.5869982
0
ARC
8
DEFAULT_255_1_234
10
5.3137307
20
28.7752101
40
0.3885653
50
343.9829931
51
0.5571613
0
ARC
8
DEFAULT_255_1_234
10
5.4023504
20
28.7509438
40
0.2966924
50
311.6359546
51
343.7651759
0
ARC
8
DEFAULT_255_1_234
10
5.3645074
20
28.7936102
40
0.3537231
50
279.7829875
51
311.6255694
0
ARC
8
DEFAULT_255_1_234
10
5.334385
20
28.937328
40
0.5004971
50
269.7286406
51
280.3856417
0
ARC
8
DEFAULT_255_1_234
10
5.3281922
20
28.9331996
40
0.4963778
50
256.6828919
51
270.4412052
0
ARC
8
DEFAULT_255_1_234
10
5.2943218
20
28.7947394
40
0.3538406
50
229.4223008
51
256.8556159
0
ARC
8
DEFAULT_255_1_234
10
5.2528611
20
28.7480736
40
0.2914296
50
181.818294
51
229.6455059
0
ARC
8
DEFAULT_255_1_234
10
5.3568567
20
28.7611496
40
0.3959084
50
179.9755256
51
183.2323064
0
ARC
8
DEFAULT_255_1_234
10
5.3396313
20
28.7591037
40
0.2293034
50
179.4465117
51
196.2869258
0
ARC
8
DEFAULT_255_1_234
10
5.2908721
20
28.7457651
40
0.1787621
50
196.5661473
51
227.705904
0
ARC
8
DEFAULT_255_1_234
10
5.3072816
20
28.7641155
40
0.2033784
50
227.7652068
51
257.8762805
0
ARC
8
DEFAULT_255_1_234
10
5.3297786
20
28.8584156
40
0.3003081
50
257.4584385
51
270.426602
0
ARC
8
DEFAULT_255_1_234
10
5.3343352
20
28.8873996
40
0.329292
50
269.5962073
51
280.8789248
0
ARC
8
DEFAULT_255_1_234
10
5.3572881
20
28.7727685
40
0.2123908
50
280.6346389
51
299.8595945
0
ARC
8
DEFAULT_255_1_234
10
5.3763788
20
28.7365212
40
0.171457
50
300.3576302
51
314.5517981
0
ARC
8
DEFAULT_255_1_234
10
5.3680848
20
28.7425919
40
0.1816095
50
315.0728369
51
345.0431014
0
ARC
8
DEFAULT_255_1_234
10
5.2757662
20
28.7694841
40
0.2777492
50
344.5986631
51
357.9269593
0
ARC
8
DEFAULT_255_1_234
10
5.1861989
20
28.7756276
40
0.3674917
50
357.4748886
51
0.0231117
0
ARC
8
DEFAULT_255_1_234
10
5.2885098
20
28.7780679
40
0.2651907
50
359.5047933
51
13.4239635
0
ARC
8
DEFAULT_255_1_234
10
5.3751741
20
28.8002478
40
0.1757509
50
12.9498199
51
48.7551375
0
ARC
8
DEFAULT_255_1_234
10
5.3569475
20
28.77534
40
0.2065134
50
49.5088623
51
72.1836453
0
ARC
8
DEFAULT_255_1_234
10
5.3211628
20
28.6691291
40
0.3185836
50
71.9010081
51
84.3554254
0
ARC
8
DEFAULT_255_1_234
10
5.305026
20
28.5330326
40
0.4556151
50
84.0193428
51
89.333121
0
LINE
8
DEFAULT_255_1_234
10
4.5473137
20
37.5654433
11
4.5473137
21
36.3904
0
LINE
8
DEFAULT_255_1_234
10
4.5473137
20
36.3904
11
4.3979234
21
36.3904
0
LINE
8
DEFAULT_255_1_234
10
4.3979234
20
36.3904
11
4.3979234
21
37.3807133
0
LINE
8
DEFAULT_255_1_234
10
4.3979234
20
37.3807133
11
4.0983396
21
37.2706785
0
LINE
8
DEFAULT_255_1_234
10
4.0983396
20
37.2706785
11
4.0983396
21
37.4056117
0
LINE
8
DEFAULT_255_1_234
10
4.0983396
20
37.4056117
11
4.5240217
21
37.5654433
0
LINE
8
DEFAULT_255_1_234
10
4.5240217
20
37.5654433
11
4.5473137
21
37.5654433
0
LINE
8
DEFAULT_255_1_234
10
5.7488618
20
36.5116792
11
5.7488618
21
36.3904
0
LINE
8
DEFAULT_255_1_234
10
5.7488618
20
36.3904
11
4.9826339
21
36.3904
0
LINE
8
DEFAULT_255_1_234
10
4.9826339
20
36.3904
11
4.9826339
21
36.4972221
0
LINE
8
DEFAULT_255_1_234
10
4.9826339
20
36.4972221
11
5.3874335
21
36.9469995
0
LINE
8
DEFAULT_255_1_234
10
5.1087322
20
37.2152595
11
4.9601451
21
37.2152595
0
LINE
8
DEFAULT_255_1_234
10
5.4749795
20
36.8514218
11
5.1617417
21
36.5116792
0
LINE
8
DEFAULT_255_1_234
10
5.1617417
20
36.5116792
11
5.7488618
21
36.5116792
0
ARC
8
DEFAULT_255_1_234
10
4.0384169
20
38.1399527
40
1.8008286
50
318.5132453
51
320.7828378
0
ARC
8
DEFAULT_255_1_234
10
4.5671143
20
37.7096426
40
1.1191493
50
320.7372736
51
323.9737074
0
ARC
8
DEFAULT_255_1_234
10
4.9591
20
37.4256361
40
0.6350923
50
323.8961724
51
328.6421089
0
ARC
8
DEFAULT_255_1_234
10
5.1637595
20
37.2994031
40
0.3946393
50
328.8299013
51
331.789948
0
ARC
8
DEFAULT_255_1_234
10
5.2634774
20
37.2479509
40
0.2824501
50
331.4255242
51
352.9364833
0
ARC
8
DEFAULT_255_1_234
10
5.2771274
20
37.2448976
40
0.2685315
50
353.2248685
51
0.0169286
0
ARC
8
DEFAULT_255_1_234
10
5.2981151
20
37.247195
40
0.2475536
50
359.4866256
51
15.9339782
0
ARC
8
DEFAULT_255_1_234
10
5.3488136
20
37.2608286
40
0.1950618
50
16.1714718
51
43.5284424
0
ARC
8
DEFAULT_255_1_234
10
5.3565445
20
37.2685573
40
0.184134
50
43.4415429
51
83.1661404
0
ARC
8
DEFAULT_255_1_234
10
5.3431363
20
37.1948771
40
0.258926
50
82.160215
51
90.1505798
0
ARC
8
DEFAULT_255_1_234
10
5.339979
20
37.1411865
40
0.3126255
50
89.5460705
51
102.5418777
0
ARC
8
DEFAULT_255_1_234
10
5.3156876
20
37.2442665
40
0.2067346
50
102.1739365
51
129.2061916
0
ARC
8
DEFAULT_255_1_234
10
5.3077948
20
37.2567094
40
0.1921118
50
129.7279328
51
135.7542026
0
ARC
8
DEFAULT_255_1_234
10
5.3199476
20
37.2470045
40
0.2075944
50
136.175737
51
166.3674722
0
ARC
8
DEFAULT_255_1_234
10
5.4206395
20
37.2200182
40
0.3118201
50
165.9092917
51
178.8683903
0
ARC
8
DEFAULT_255_1_234
10
5.5071256
20
37.2153179
40
0.3983935
50
178.438168
51
180.0083905
0
ARC
8
DEFAULT_255_1_234
10
5.3669859
20
37.2192231
40
0.4068601
50
163.2878735
51
180.5581814
0
ARC
8
DEFAULT_255_1_234
10
5.286812
20
37.241284
40
0.3237344
50
133.454115
51
162.9470031
0
ARC
8
DEFAULT_255_1_234
10
5.3046661
20
37.2223
40
0.349795
50
100.7869394
51
133.4384016
0
ARC
8
DEFAULT_255_1_234
10
5.3394433
20
37.0674319
40
0.5084616
50
89.6605301
51
101.3704185
0
ARC
8
DEFAULT_255_1_234
10
5.3460772
20
37.0735496
40
0.502348
50
78.2171172
51
90.4130393
0
ARC
8
DEFAULT_255_1_234
10
5.381585
20
37.2359637
40
0.3361092
50
55.9268222
51
78.4888551
0
ARC
8
DEFAULT_255_1_234
10
5.401229
20
37.2698324
40
0.2970617
50
47.9292255
51
55.4054003
0
ARC
8
DEFAULT_255_1_234
10
5.4113851
20
37.2801502
40
0.2825983
50
4.3347696
51
48.0560701
0
ARC
8
DEFAULT_255_1_234
10
5.3018244
20
37.2631601
40
0.393225
50
359.925209
51
5.5967654
0
ARC
8
DEFAULT_255_1_234
10
5.3447136
20
37.2687816
40
0.3503892
50
337.8914096
51
358.9967724
0
ARC
8
DEFAULT_255_1_234
10
5.0733548
20
37.3734706
40
0.6412172
50
326.9135351
51
338.3505194
0
ARC
8
DEFAULT_255_1_234
10
4.6747852
20
37.6289284
40
1.1146189
50
319.6472867
51
327.095818
0
ARC
8
DEFAULT_255_1_234
10
4.2914855
20
37.9451
40
1.6114559
50
317.2586784
51
319.9046139
0
LINE
8
DEFAULT_255_1_234
10
4.5383137
20
45.5029433
11
4.5383137
21
44.3279
0
LINE
8
DEFAULT_255_1_234
10
4.5383137
20
44.3279
11
4.3889234
21
44.3279
0
LINE
8
DEFAULT_255_1_234
10
4.3889234
20
44.3279
11
4.3889234
21
45.3182133
0
LINE
8
DEFAULT_255_1_234
10
4.3889234
20
45.3182133
11
4.0893396
21
45.2081785
0
LINE
8
DEFAULT_255_1_234
10
4.0893396
20
45.2081785
11
4.0893396
21
45.3431117
0
LINE
8
DEFAULT_255_1_234
10
4.0893396
20
45.3431117
11
4.5150217
21
45.5029433
0
LINE
8
DEFAULT_255_1_234
10
4.5150217
20
45.5029433
11
4.5383137
21
45.5029433
0
LINE
8
DEFAULT_255_1_234
10
5.4619636
20
45.5029433
11
5.4619636
21
44.3279
0
LINE
8
DEFAULT_255_1_234
10
5.4619636
20
44.3279
11
5.3125733
21
44.3279
0
LINE
8
DEFAULT_255_1_234
10
5.3125733
20
44.3279
11
5.3125733
21
45.3182133
0
LINE
8
DEFAULT_255_1_234
10
5.3125733
20
45.3182133
11
5.0129895
21
45.2081785
0
LINE
8
DEFAULT_255_1_234
10
5.0129895
20
45.2081785
11
5.0129895
21
45.3431117
0
LINE
8
DEFAULT_255_1_234
10
5.0129895
20
45.3431117
11
5.4386716
21
45.5029433
0
LINE
8
DEFAULT_255_1_234
10
5.4386716
20
45.5029433
11
5.4619636
21
45.5029433
0
LINE
8
DEFAULT_255_1_234
10
4.5473137
20
53.4404433
11
4.5473137
21
52.2654
0
LINE
8
DEFAULT_255_1_234
10
4.5473137
20
52.2654
11
4.3979234
21
52.2654
0
LINE
8
DEFAULT_255_1_234
10
4.3979234
20
52.2654
11
4.3979234
21
53.2557133
0
LINE
8
DEFAULT_255_1_234
10
4.3979234
20
53.2557133
11
4.0983396
21
53.1456785
0
LINE
8
DEFAULT_255_1_234
10
4.0983396
20
53.1456785
11
4.0983396
21
53.2806117
0
LINE
8
DEFAULT_255_1_234
10
4.0983396
20
53.2806117
11
4.5240217
21
53.4404433
0
LINE
8
DEFAULT_255_1_234
10
4.5240217
20
53.4404433
11
4.5473137
21
53.4404433
0
LINE
8
DEFAULT_255_1_234
10
5.7159316
20
52.9569327
11
5.7159316
21
52.7641709
0
LINE
8
DEFAULT_255_1_234
10
4.9778149
20
52.7440916
11
4.9778149
21
52.9424755
0
LINE
8
DEFAULT_255_1_234
10
5.5673445
20
52.7240123
11
5.5673445
21
52.9673739
0
LINE
8
DEFAULT_255_1_234
10
5.1264021
20
52.9786184
11
5.1264021
21
52.7408789
0
ARC
8
DEFAULT_255_1_234
10
4.4912206
20
52.7592805
40
1.2247208
50
353.8441951
51
0.2287902
0
ARC
8
DEFAULT_255_1_234
10
4.955171
20
52.7074806
40
0.7578929
50
344.4934747
51
353.9765454
0
ARC
8
DEFAULT_255_1_234
10
5.25443
20
52.6223981
40
0.4467846
50
329.2803592
51
344.7472793
0
ARC
8
DEFAULT_255_1_234
10
5.3537125
20
52.5679018
40
0.3336173
50
324.9352394
51
328.6160465
0
ARC
8
DEFAULT_255_1_234
10
5.3914233
20
52.5415427
40
0.2876076
50
280.580143
51
324.9173126
0
ARC
8
DEFAULT_255_1_234
10
5.3513026
20
52.7086099
40
0.4592847
50
269.5977311
51
281.6734359
0
ARC
8
DEFAULT_255_1_234
10
5.3440932
20
52.6966173
40
0.4472986
50
256.6228859
51
270.51044
0
ARC
8
DEFAULT_255_1_234
10
5.3038909
20
52.5417877
40
0.2873874
50
215.8618325
51
257.2788573
0
ARC
8
DEFAULT_255_1_234
10
5.4059941
20
52.6102977
40
0.4102928
50
197.9693508
51
215.2623606
0
ARC
8
DEFAULT_255_1_234
10
5.6545057
20
52.6941709
40
0.6725652
50
187.8816417
51
198.2346507
0
ARC
8
DEFAULT_255_1_234
10
6.0503265
20
52.7513079
40
1.0724845
50
180.8976217
51
188.0055519
0
ARC
8
DEFAULT_255_1_234
10
6.3303453
20
52.7616777
40
1.3526448
50
180.7449369
51
181.1510016
0
ARC
8
DEFAULT_255_1_234
10
6.1726182
20
52.9473042
40
1.1948131
50
173.7675579
51
180.231553
0
ARC
8
DEFAULT_255_1_234
10
5.7208329
20
52.9983666
40
0.7401564
50
164.3058563
51
173.9002247
0
ARC
8
DEFAULT_255_1_234
10
5.4296398
20
53.0822656
40
0.4371288
50
148.7922025
51
164.568378
0
ARC
8
DEFAULT_255_1_234
10
5.334485
20
53.1353929
40
0.3282386
50
144.5883898
51
148.1176286
0
ARC
8
DEFAULT_255_1_234
10
5.3001748
20
53.1593315
40
0.2864044
50
101.6440918
51
144.514236
0
ARC
8
DEFAULT_255_1_234
10
5.3426814
20
52.9904069
40
0.4604934
50
89.5284041
51
102.5819763
0
ARC
8
DEFAULT_255_1_234
10
5.3505902
20
52.9865018
40
0.464401
50
77.0437873
51
90.5081339
0
ARC
8
DEFAULT_255_1_234
10
5.3907904
20
53.1507615
40
0.2953195
50
48.2778575
51
77.4994676
0
ARC
8
DEFAULT_255_1_234
10
5.3980535
20
53.1636746
40
0.2808655
50
36.3142134
51
47.6305865
0
ARC
8
DEFAULT_255_1_234
10
5.3111842
20
53.1051515
40
0.3855453
50
18.2931786
51
35.6769206
0
ARC
8
DEFAULT_255_1_234
10
5.0568601
20
53.0178593
40
0.654423
50
8.024666
51
18.5605216
0
ARC
8
DEFAULT_255_1_234
10
4.6405521
20
52.9563792
40
1.0752407
50
1.1274072
51
8.1718305
0
ARC
8
DEFAULT_255_1_234
10
4.3169712
20
52.9436885
40
1.3990231
50
0.5424119
51
1.3863029
0
ARC
8
DEFAULT_255_1_234
10
4.4991089
20
52.9709342
40
1.0682415
50
359.8090433
51
4.9407866
0
ARC
8
DEFAULT_255_1_234
10
4.9201103
20
53.0085113
40
0.6455691
50
4.8362157
51
12.2904523
0
ARC
8
DEFAULT_255_1_234
10
5.1956218
20
53.0698965
40
0.3633074
50
12.0805627
51
23.8173984
0
ARC
8
DEFAULT_255_1_234
10
5.3129924
20
53.1195919
40
0.2358723
50
24.2871213
51
31.3935614
0
ARC
8
DEFAULT_255_1_234
10
5.3654621
20
53.1539233
40
0.1732111
50
30.7407893
51
82.4657128
0
ARC
8
DEFAULT_255_1_234
10
5.3474755
20
53.0655691
40
0.263235
50
81.1060089
51
90.2184952
0
ARC
8
DEFAULT_255_1_234
10
5.3439054
20
53.0913924
40
0.2374236
50
89.3806855
51
105.6762551
0
ARC
8
DEFAULT_255_1_234
10
5.3255685
20
53.1580567
40
0.1682847
50
105.7981136
51
149.7388061
0
ARC
8
DEFAULT_255_1_234
10
5.4319763
20
53.094095
40
0.2924306
50
149.4208916
51
163.6286378
0
ARC
8
DEFAULT_255_1_234
10
5.6410651
20
53.030325
40
0.5110213
50
163.3763315
51
172.1410975
0
ARC
8
DEFAULT_255_1_234
10
5.971137
20
52.9830518
40
0.8444586
50
172.0259487
51
178.0703232
0
ARC
8
DEFAULT_255_1_234
10
6.274146
20
52.9686906
40
1.1477868
50
177.8631668
51
179.5044149
0
ARC
8
DEFAULT_255_1_234
10
6.1668864
20
52.7372389
40
1.0404907
50
179.7995573
51
185.2460446
0
ARC
8
DEFAULT_255_1_234
10
5.7625903
20
52.6989513
40
0.6343885
50
185.1411642
51
193.0079639
0
ARC
8
DEFAULT_255_1_234
10
5.4982376
20
52.6364641
40
0.3627568
50
192.7897626
51
205.2507664
0
ARC
8
DEFAULT_255_1_234
10
5.3935923
20
52.5897415
40
0.2481908
50
205.8005384
51
211.2537509
0
ARC
8
DEFAULT_255_1_234
10
5.3412363
20
52.554658
40
0.1852521
50
210.3789793
51
238.4008143
0
ARC
8
DEFAULT_255_1_234
10
5.3392885
20
52.5593376
40
0.1882621
50
239.6520629
51
265.9793761
0
ARC
8
DEFAULT_255_1_234
10
5.3478085
20
52.6265427
40
0.2559272
50
265.1315437
51
270.060332
0
ARC
8
DEFAULT_255_1_234
10
5.3506864
20
52.5941534
40
0.2235528
50
269.3314664
51
287.2178029
0
ARC
8
DEFAULT_255_1_234
10
5.3644716
20
52.5438279
40
0.1714108
50
287.7958004
51
329.080874
0
ARC
8
DEFAULT_255_1_234
10
5.2687173
20
52.603593
40
0.2842745
50
328.6634704
51
343.3325132
0
ARC
8
DEFAULT_255_1_234
10
5.0514193
20
52.6712863
40
0.5118644
50
343.0499468
51
351.9393422
0
ARC
8
DEFAULT_255_1_234
10
4.7047493
20
52.7223949
40
0.8622784
50
351.8069023
51
357.7959224
0
ARC
8
DEFAULT_255_1_234
10
4.3812049
20
52.7391721
40
1.1862365
50
357.5871873
51
359.2677531
0
LINE
8
DEFAULT_255_1_234
10
4.7181246
20
60.9048739
11
4.7181246
21
60.8615025
0
LINE
8
DEFAULT_255_1_234
10
4.1759823
20
60.2020968
11
4.147068
21
60.2020968
0
LINE
8
DEFAULT_255_1_234
10
4.147068
20
60.2020968
11
4.147068
21
60.3273919
0
LINE
8
DEFAULT_255_1_234
10
4.147068
20
60.3273919
11
4.1783918
21
60.3273919
0
LINE
8
DEFAULT_255_1_234
10
4.5695375
20
60.8759597
11
4.5695375
21
60.9353945
0
ARC
8
DEFAULT_255_1_234
10
4.2901644
20
60.9505403
40
0.3635579
50
297.4037347
51
320.016758
0
ARC
8
DEFAULT_255_1_234
10
4.3191593
20
60.894824
40
0.3007486
50
270.2633101
51
297.3851877
0
ARC
8
DEFAULT_255_1_234
10
4.3157549
20
60.9411904
40
0.3471448
50
269.9966443
51
270.7900392
0
ARC
8
DEFAULT_255_1_234
10
4.313203
20
60.9410143
40
0.3469779
50
254.5999133
51
270.4180344
0
ARC
8
DEFAULT_255_1_234
10
4.2989389
20
60.8845647
40
0.2887697
50
236.4717942
51
254.3541279
0
ARC
8
DEFAULT_255_1_234
10
4.3145607
20
60.9055711
40
0.3149125
50
208.4727207
51
236.2134933
0
ARC
8
DEFAULT_255_1_234
10
4.3784382
20
60.9446455
40
0.3897115
50
204.3447514
51
209.0453999
0
ARC
8
DEFAULT_255_1_234
10
4.4463958
20
60.9734656
40
0.4635101
50
183.9375985
51
204.1276318
0
ARC
8
DEFAULT_255_1_234
10
4.5372209
20
60.9832482
40
0.5548037
50
179.9652252
51
184.3013875
0
ARC
8
DEFAULT_255_1_234
10
4.5132255
20
60.9865507
40
0.5308164
50
166.7585989
51
180.3201225
0
ARC
8
DEFAULT_255_1_234
10
4.4285869
20
61.0049488
40
0.4442163
50
154.6955053
51
166.5679793
0
ARC
8
DEFAULT_255_1_234
10
4.3432739
20
61.047921
40
0.3487299
50
136.3324195
51
155.0871442
0
ARC
8
DEFAULT_255_1_234
10
4.3151812
20
61.0719954
40
0.3117924
50
121.236733
51
135.9680508
0
ARC
8
DEFAULT_255_1_234
10
4.329231
20
61.0459743
40
0.3413302
50
96.845628
51
120.9881519
0
ARC
8
DEFAULT_255_1_234
10
4.3437892
20
60.9524515
40
0.4359341
50
89.8870174
51
97.2802754
0
ARC
8
DEFAULT_255_1_234
10
4.349033
20
61.0162095
40
0.3722009
50
70.6505584
51
90.6749113
0
ARC
8
DEFAULT_255_1_234
10
4.3621609
20
61.0675361
40
0.3194571
50
36.7492984
51
69.8219918
0
ARC
8
DEFAULT_255_1_234
10
4.2622774
20
60.9896993
40
0.4460685
50
15.39587
51
37.0840084
0
ARC
8
DEFAULT_255_1_234
10
4.0493207
20
60.9276242
40
0.6678714
50
3.9488873
51
15.6798563
0
ARC
8
DEFAULT_255_1_234
10
3.8091835
20
60.9059964
40
0.9089418
50
359.929245
51
4.2665314
0
ARC
8
DEFAULT_255_1_234
10
3.3486272
20
60.8548513
40
1.3695135
50
352.8366322
51
0.2782669
0
ARC
8
DEFAULT_255_1_234
10
3.8773951
20
60.7861629
40
0.8363105
50
341.8359505
51
352.9884176
0
ARC
8
DEFAULT_255_1_234
10
4.199267
20
60.67767
40
0.4966642
50
322.8578092
51
342.1527901
0
ARC
8
DEFAULT_255_1_234
10
4.2856626
20
60.6187384
40
0.3922466
50
319.334325
51
322.0998941
0
ARC
8
DEFAULT_255_1_234
10
4.2546963
20
60.6498209
40
0.4360033
50
285.9541367
51
318.8878087
0
ARC
8
DEFAULT_255_1_234
10
4.1820224
20
60.88086
40
0.678149
50
272.9281676
51
286.4922826
0
ARC
8
DEFAULT_255_1_234
10
4.1630342
20
61.1059587
40
0.9039547
50
270.8207226
51
273.4012994
0
ARC
8
DEFAULT_255_1_234
10
4.1719193
20
60.9240666
40
0.5967098
50
270.6214993
51
281.4062806
0
ARC
8
DEFAULT_255_1_234
10
4.2149174
20
60.7184833
40
0.3866861
50
281.1852553
51
299.0621114
0
ARC
8
DEFAULT_255_1_234
10
4.2522745
20
60.6463798
40
0.3055236
50
299.5067782
51
313.1200873
0
ARC
8
DEFAULT_255_1_234
10
4.2544712
20
60.6384554
40
0.2982623
50
313.8526205
51
338.5989322
0
ARC
8
DEFAULT_255_1_234
10
4.0920786
20
60.7051781
40
0.4738131
50
338.2523585
51
351.2430902
0
ARC
8
DEFAULT_255_1_234
10
3.8510082
20
60.7461447
40
0.7183203
50
350.9409515
51
357.6691871
0
ARC
8
DEFAULT_255_1_234
10
4.3400512
20
60.9463764
40
0.2294452
50
269.9447023
51
306.8248917
0
ARC
8
DEFAULT_255_1_234
10
4.3163427
20
60.9886898
40
0.2775994
50
305.5072438
51
327.0773448
0
ARC
8
DEFAULT_255_1_234
10
4.3281868
20
60.9792025
40
0.2625056
50
327.4104943
51
336.840169
0
ARC
8
DEFAULT_255_1_234
10
4.0187933
20
60.9386302
40
0.5507537
50
359.6633817
51
10.117533
0
ARC
8
DEFAULT_255_1_234
10
4.1941731
20
60.9710777
40
0.372403
50
9.9430141
51
26.7700076
0
ARC
8
DEFAULT_255_1_234
10
4.2538943
20
60.9986187
40
0.3066865
50
27.2015464
51
34.6829435
0
ARC
8
DEFAULT_255_1_234
10
4.3028423
20
61.0353977
40
0.245519
50
34.1250343
51
50.3070065
0
ARC
8
DEFAULT_255_1_234
10
4.3475103
20
61.0888385
40
0.1758693
50
50.3851167
51
90.6705993
0
ARC
8
DEFAULT_255_1_234
10
4.3428336
20
61.0583799
40
0.2063326
50
89.272901
51
111.9140407
0
ARC
8
DEFAULT_255_1_234
10
4.3408864
20
61.072444
40
0.1925887
50
112.9382311
51
142.5320782
0
ARC
8
DEFAULT_255_1_234
10
4.3955044
20
61.0280969
40
0.2629232
50
142.1021256
51
166.3835592
0
ARC
8
DEFAULT_255_1_234
10
4.5136349
20
60.9975915
40
0.3849193
50
166.1100289
51
178.665427
0
ARC
8
DEFAULT_255_1_234
10
4.6183938
20
60.9917117
40
0.4897989
50
178.2632126
51
180.0111093
0
ARC
8
DEFAULT_255_1_234
10
4.5382059
20
60.9888728
40
0.40962
50
179.6161962
51
191.8787166
0
ARC
8
DEFAULT_255_1_234
10
4.4161898
20
60.9618896
40
0.2846655
50
191.6191692
51
215.2972286
0
ARC
8
DEFAULT_255_1_234
10
4.3965089
20
60.9503918
40
0.2619665
50
215.7320102
51
216.5355409
0
ARC
8
DEFAULT_255_1_234
10
4.3426175
20
60.9071647
40
0.1929497
50
215.7486685
51
239.9727502
0
ARC
8
DEFAULT_255_1_234
10
4.3356091
20
60.9020894
40
0.1850822
50
241.0650169
51
269.2810483
0
ARC
8
DEFAULT_255_1_234
10
4.3398006
20
60.9511371
40
0.2342059
50
268.4062526
51
270.0071348
0
ARC
8
DEFAULT_255_1_234
10
4.4262624
20
69.0020703
40
0.2822356
50
338.8763615
51
0.5166041
0
ARC
8
DEFAULT_255_1_234
10
4.4431278
20
68.9975208
40
0.2648703
50
325.8412414
51
338.4795939
0
ARC
8
DEFAULT_255_1_234
10
4.4040646
20
69.0246042
40
0.3124019
50
296.7586019
51
325.753654
0
ARC
8
DEFAULT_255_1_234
10
4.3752754
20
69.0730789
40
0.368668
50
296.0902311
51
297.3618122
0
ARC
8
DEFAULT_255_1_234
10
4.4010212
20
68.4176041
40
0.3518806
50
47.9009248
51
67.1946869
0
ARC
8
DEFAULT_255_1_234
10
4.4206454
20
68.4422395
40
0.320451
50
35.236241
51
47.551371
0
ARC
8
DEFAULT_255_1_234
10
4.4468072
20
68.4596993
40
0.2890103
50
359.2759738
51
35.4014081
0
ARC
8
DEFAULT_255_1_234
10
4.3723103
20
68.4523826
40
0.3635026
50
343.1294516
51
0.5776525
0
ARC
8
DEFAULT_255_1_234
10
4.4447648
20
68.432433
40
0.2883832
50
310.8497458
51
342.744803
0
ARC
8
DEFAULT_255_1_234
10
4.4029761
20
68.4801294
40
0.3517954
50
281.5473923
51
310.9169905
0
ARC
8
DEFAULT_255_1_234
10
4.367321
20
68.6354084
40
0.5110832
50
269.6192722
51
281.9789957
0
ARC
8
DEFAULT_255_1_234
10
4.3601
20
68.6354828
40
0.5111606
50
257.4584469
51
270.4287458
0
ARC
8
DEFAULT_255_1_234
10
4.3220143
20
68.4751344
40
0.3463762
50
228.7553743
51
257.8484423
0
ARC
8
DEFAULT_255_1_234
10
4.2910341
20
68.4378442
40
0.297916
50
184.0104442
51
228.5071787
0
ARC
8
DEFAULT_255_1_234
10
4.4073285
20
68.4555512
40
0.4152734
50
179.9315461
51
185.3254504
0
ARC
8
DEFAULT_255_1_234
10
4.2896931
20
68.4592992
40
0.2976554
50
145.6795913
51
180.6259649
0
ARC
8
DEFAULT_255_1_234
10
4.306028
20
68.4478929
40
0.3175776
50
115.5537925
51
145.6416199
0
ARC
8
DEFAULT_255_1_234
10
4.340121
20
68.3868028
40
0.3874232
50
113.2437915
51
116.2054627
0
ARC
8
DEFAULT_255_1_234
10
4.3248423
20
69.026658
40
0.3154751
50
222.9548379
51
244.1372485
0
ARC
8
DEFAULT_255_1_234
10
4.3126498
20
69.0129834
40
0.2972382
50
213.3439227
51
222.6271327
0
ARC
8
DEFAULT_255_1_234
10
4.2934433
20
68.9999308
40
0.274019
50
180.4316517
51
213.2713999
0
ARC
8
DEFAULT_255_1_234
10
4.3509434
20
69.004611
40
0.33158
50
179.9992944
51
181.1655061
0
ARC
8
DEFAULT_255_1_234
10
4.3918851
20
69.0080561
40
0.3725376
50
164.6186108
51
180.5292368
0
ARC
8
DEFAULT_255_1_234
10
4.3020714
20
69.0322101
40
0.2795349
50
132.2454369
51
164.5092287
0
ARC
8
DEFAULT_255_1_234
10
4.3307818
20
68.9997028
40
0.3229019
50
100.7052766
51
132.1387266
0
ARC
8
DEFAULT_255_1_234
10
4.361279
20
68.8619086
40
0.4639835
50
89.6732617
51
101.2449487
0
ARC
8
DEFAULT_255_1_234
10
4.3674988
20
68.879399
40
0.4464999
50
76.2876631
51
90.4586123
0
ARC
8
DEFAULT_255_1_234
10
4.398122
20
69.001622
40
0.3205023
50
47.8240157
51
76.4266918
0
ARC
8
DEFAULT_255_1_234
10
4.420377
20
69.027659
40
0.2862661
50
6.9168658
51
47.6261438
0
ARC
8
DEFAULT_255_1_234
10
4.3017173
20
69.005737
40
0.4067708
50
359.8419705
51
7.9694496
0
ARC
8
DEFAULT_255_1_234
10
4.335907
20
68.4616925
40
0.2513121
50
359.4454068
51
16.9256425
0
ARC
8
DEFAULT_255_1_234
10
4.3827881
20
68.4746033
40
0.2027071
50
17.292259
51
45.462717
0
ARC
8
DEFAULT_255_1_234
10
4.3773817
20
68.4699434
40
0.2098212
50
45.3028762
51
83.1921472
0
ARC
8
DEFAULT_255_1_234
10
4.3630501
20
68.3897895
40
0.2911472
50
82.2614531
51
90.143954
0
ARC
8
DEFAULT_255_1_234
10
4.3599621
20
68.413095
40
0.2678513
50
89.4959189
51
104.8579811
0
ARC
8
DEFAULT_255_1_234
10
4.342288
20
68.480089
40
0.1985654
50
104.8855873
51
135.2448349
0
ARC
8
DEFAULT_255_1_234
10
4.3472653
20
68.4756336
40
0.2052373
50
135.3398955
51
172.104394
0
ARC
8
DEFAULT_255_1_234
10
4.4279711
20
68.4601925
40
0.2873299
50
171.2651929
51
180.1859362
0
ARC
8
DEFAULT_255_1_234
10
4.4110412
20
68.4569733
40
0.2704083
50
179.515471
51
193.6466734
0
ARC
8
DEFAULT_255_1_234
10
4.3294181
20
68.4361777
40
0.1861855
50
193.3540587
51
225.8256931
0
ARC
8
DEFAULT_255_1_234
10
4.3334938
20
68.4432524
40
0.1941102
50
226.418029
51
255.8553723
0
ARC
8
DEFAULT_255_1_234
10
4.3591371
20
68.5368998
40
0.2911917
50
255.4655572
51
268.7985967
0
ARC
8
DEFAULT_255_1_234
10
4.3638563
20
68.6207491
40
0.3751331
50
268.3464808
51
270.0104874
0
ARC
8
DEFAULT_255_1_234
10
4.3661951
20
68.5523138
40
0.3067064
50
269.575914
51
282.0823146
0
ARC
8
DEFAULT_255_1_234
10
4.388686
20
68.4528803
40
0.2047712
50
281.7522535
51
306.6056425
0
ARC
8
DEFAULT_255_1_234
10
4.3985286
20
68.4367487
40
0.1859604
50
307.1350025
51
314.0277951
0
ARC
8
DEFAULT_255_1_234
10
4.394937
20
68.4393766
40
0.1903475
50
314.2553419
51
350.169324
0
ARC
8
DEFAULT_255_1_234
10
4.3097839
20
68.4578409
40
0.2774269
50
349.4145679
51
0.2930737
0
ARC
8
DEFAULT_255_1_234
10
4.3618272
20
68.9737353
40
0.2300764
50
89.477591
51
105.729794
0
ARC
8
DEFAULT_255_1_234
10
4.3482185
20
69.0242637
40
0.1777519
50
105.922966
51
135.1662921
0
ARC
8
DEFAULT_255_1_234
10
4.3502688
20
69.0228419
40
0.1802087
50
135.3053131
51
168.9882338
0
ARC
8
DEFAULT_255_1_234
10
4.433026
20
69.0038721
40
0.2650806
50
168.3802067
51
180.3602358
0
ARC
8
DEFAULT_255_1_234
10
4.410184
20
69.0001041
40
0.2422425
50
179.5029707
51
194.9126783
0
ARC
8
DEFAULT_255_1_234
10
4.3516501
20
68.984711
40
0.1817188
50
194.9722181
51
224.1943972
0
ARC
8
DEFAULT_255_1_234
10
4.3488368
20
68.9824169
40
0.1781027
50
224.2961434
51
262.0157375
0
ARC
8
DEFAULT_255_1_234
10
4.3630611
20
69.0555661
40
0.2525492
50
261.1250369
51
270.1959853
0
ARC
8
DEFAULT_255_1_234
10
4.3660366
20
69.0368339
40
0.233825
50
269.4825617
51
285.0988277
0
ARC
8
DEFAULT_255_1_234
10
4.3814525
20
68.978999
40
0.1739712
50
285.1585659
51
315.9484648
0
ARC
8
DEFAULT_255_1_234
10
4.3725537
20
68.9871886
40
0.1860616
50
316.0412958
51
351.9162715
0
ARC
8
DEFAULT_255_1_234
10
4.2992492
20
69.0013245
40
0.2606517
50
351.1056823
51
0.1936567
0
ARC
8
DEFAULT_255_1_234
10
4.3255321
20
69.0043369
40
0.234377
50
359.4789506
51
16.0679113
0
ARC
8
DEFAULT_255_1_234
10
4.373128
20
69.017181
40
0.1850875
50
16.3251951
51
44.791304
0
ARC
8
DEFAULT_255_1_234
10
4.3713561
20
69.0172339
40
0.186312
50
44.3958661
51
88.2498933
0
ARC
8
DEFAULT_255_1_234
10
4.3640115
20
68.9561154
40
0.2476868
50
86.9833827
51
90.0200148
0
LINE
8
DEFAULT_255_1_234
10
4.801923
20
76.4489663
11
4.9569355
21
76.4489663
0
LINE
8
DEFAULT_255_1_234
10
4.0565777
20
76.6079947
11
4.0565777
21
76.7204391
0
LINE
8
DEFAULT_255_1_234
10
4.9569355
20
76.8714357
11
4.801923
21
76.8714357
0
LINE
8
DEFAULT_255_1_234
10
4.2115902
20
76.7164232
11
4.2115902
21
76.6031757
0
ARC
8
DEFAULT_255_1_234
10
4.4088742
20
76.5086846
40
0.5513052
50
340.1774281
51
353.7814284
0
ARC
8
DEFAULT_255_1_234
10
4.5660095
20
76.4501582
40
0.3836379
50
311.4558989
51
340.4421614
0
ARC
8
DEFAULT_255_1_234
10
4.5626763
20
76.4612528
40
0.3941894
50
282.4333181
51
310.7513653
0
ARC
8
DEFAULT_255_1_234
10
4.5187502
20
76.6427679
40
0.5809175
50
269.9358511
51
282.809604
0
ARC
8
DEFAULT_255_1_234
10
4.5135568
20
76.7885212
40
0.7266847
50
270.0021091
51
270.3581957
0
ARC
8
DEFAULT_255_1_234
10
4.5082985
20
76.5284585
40
0.4666519
50
250.7884749
51
270.6489167
0
ARC
8
DEFAULT_255_1_234
10
4.491482
20
76.4647319
40
0.4009729
50
219.3627325
51
250.0611886
0
ARC
8
DEFAULT_255_1_234
10
4.5744031
20
76.5352042
40
0.5097822
50
193.5479632
51
219.5756669
0
ARC
8
DEFAULT_255_1_234
10
4.8115652
20
76.5967919
40
0.7547848
50
181.1218675
51
193.87563
0
ARC
8
DEFAULT_255_1_234
10
5.0185833
20
76.607858
40
0.9620055
50
179.9918545
51
181.5394234
0
ARC
8
DEFAULT_255_1_234
10
4.8334935
20
76.7241788
40
0.7769248
50
169.5837241
51
180.2757934
0
ARC
8
DEFAULT_255_1_234
10
4.6497873
20
76.7581229
40
0.590109
50
155.0365899
51
169.6003176
0
ARC
8
DEFAULT_255_1_234
10
4.5362337
20
76.8128677
40
0.4640625
50
136.783148
51
155.2472683
0
ARC
8
DEFAULT_255_1_234
10
4.4972814
20
76.8459562
40
0.4130255
50
121.7633186
51
136.428115
0
ARC
8
DEFAULT_255_1_234
10
4.5107776
20
76.8210227
40
0.4413323
50
95.6459699
51
121.5490577
0
ARC
8
DEFAULT_255_1_234
10
4.5265058
20
76.7101949
40
0.55319
50
89.924208
51
96.1377933
0
ARC
8
DEFAULT_255_1_234
10
4.5315491
20
76.7220542
40
0.5413475
50
76.6779277
51
90.4563316
0
ARC
8
DEFAULT_255_1_234
10
4.5709114
20
76.8811114
40
0.3775041
50
47.485847
51
76.9287264
0
ARC
8
DEFAULT_255_1_234
10
4.5562087
20
76.8711159
40
0.3948286
50
16.5424086
51
46.8933463
0
ARC
8
DEFAULT_255_1_234
10
4.3954244
20
76.8182861
40
0.564021
50
5.4072051
51
17.0365086
0
ARC
8
DEFAULT_255_1_234
10
4.2515261
20
76.7951679
40
0.5556559
50
7.8891745
51
15.9239216
0
ARC
8
DEFAULT_255_1_234
10
4.4502274
20
76.8528631
40
0.3487515
50
15.7653144
51
27.9410532
0
ARC
8
DEFAULT_255_1_234
10
4.5606492
20
76.911979
40
0.2235026
50
27.8166557
51
46.4008329
0
ARC
8
DEFAULT_255_1_234
10
4.5656135
20
76.9114082
40
0.2205286
50
47.4371857
51
75.0698205
0
ARC
8
DEFAULT_255_1_234
10
4.5347529
20
76.8039765
40
0.3322915
50
74.7008593
51
87.8124495
0
ARC
8
DEFAULT_255_1_234
10
4.5274217
20
76.6983844
40
0.4380987
50
87.3814673
51
90.0240855
0
ARC
8
DEFAULT_255_1_234
10
4.523576
20
76.8161291
40
0.3203749
50
89.3451631
51
108.5745436
0
ARC
8
DEFAULT_255_1_234
10
4.5098865
20
76.8674908
40
0.2673494
50
109.2998449
51
143.3037509
0
ARC
8
DEFAULT_255_1_234
10
4.5860938
20
76.8088881
40
0.3634757
50
143.0753173
51
163.1916937
0
ARC
8
DEFAULT_255_1_234
10
4.7812666
20
76.7472967
40
0.5681262
50
162.9373603
51
174.6208611
0
ARC
8
DEFAULT_255_1_234
10
5.0438708
20
76.718501
40
0.8322832
50
174.3419979
51
180.1430411
0
ARC
8
DEFAULT_255_1_234
10
4.9507864
20
76.5990698
40
0.7392076
50
179.6817502
51
189.150529
0
ARC
8
DEFAULT_255_1_234
10
4.7007112
20
76.557419
40
0.4856932
50
188.9910863
51
203.5773039
0
ARC
8
DEFAULT_255_1_234
10
4.5927445
20
76.5126211
40
0.3688271
50
203.9077269
51
215.1312379
0
ARC
8
DEFAULT_255_1_234
10
4.5004539
20
76.4410941
40
0.2522457
50
213.9071664
51
263.8849284
0
ARC
8
DEFAULT_255_1_234
10
4.5129868
20
76.5195518
40
0.3316174
50
263.1758525
51
270.1031083
0
ARC
8
DEFAULT_255_1_234
10
4.516196
20
76.6442365
40
0.4563091
50
269.6719807
51
279.0609165
0
ARC
8
DEFAULT_255_1_234
10
4.5428728
20
76.4829907
40
0.2928759
50
278.8750225
51
293.6346586
0
ARC
8
DEFAULT_255_1_234
10
4.5748936
20
76.40779
40
0.2111472
50
293.8553404
51
310.0518804
0
ARC
8
DEFAULT_255_1_234
10
4.575379
20
76.4015516
40
0.2060917
50
311.0646779
51
332.0108348
0
ARC
8
DEFAULT_255_1_234
10
4.4561517
20
76.4672978
40
0.3422352
50
331.6588543
51
343.2878891
0
ARC
8
DEFAULT_255_1_234
10
4.2499032
20
76.5306798
40
0.5580003
50
343.1446044
51
351.010618
0
ARC
8
DEFAULT_255_1_234
10
4.0957678
20
76.5587871
40
0.7146438
50
350.7157277
51
351.1602153
0
LINE
8
DEFAULT_255_1_234
10
5.6171444
20
77.2529433
11
5.6171444
21
76.0779
0
LINE
8
DEFAULT_255_1_234
10
5.6171444
20
76.0779
11
5.4677541
21
76.0779
0
LINE
8
DEFAULT_255_1_234
10
5.4677541
20
76.0779
11
5.4677541
21
77.0682133
0
LINE
8
DEFAULT_255_1_234
10
5.4677541
20
77.0682133
11
5.1681703
21
76.9581785
0
LINE
8
DEFAULT_255_1_234
10
5.1681703
20
76.9581785
11
5.1681703
21
77.0931117
0
LINE
8
DEFAULT_255_1_234
10
5.1681703
20
77.0931117
11
5.5938524
21
77.2529433
0
LINE
8
DEFAULT_255_1_234
10
5.5938524
20
77.2529433
11
5.6171444
21
77.2529433
0
LINE
8
DEFAULT_255_1_234
10
4.7542674
20
85.1848211
11
4.7542674
21
85.101291
0
LINE
8
DEFAULT_255_1_234
10
4.7542674
20
85.101291
11
4.2699536
21
84.0154
0
LINE
8
DEFAULT_255_1_234
10
4.2699536
20
84.0154
11
4.1141379
21
84.0154
0
LINE
8
DEFAULT_255_1_234
10
4.1141379
20
84.0154
11
4.5968454
21
85.0627387
0
LINE
8
DEFAULT_255_1_234
10
4.5968454
20
85.0627387
11
3.9639444
21
85.0627387
0
LINE
8
DEFAULT_255_1_234
10
3.9639444
20
85.0627387
11
3.9639444
21
85.1848211
0
LINE
8
DEFAULT_255_1_234
10
3.9639444
20
85.1848211
11
4.7542674
21
85.1848211
0
LINE
8
DEFAULT_255_1_234
10
4.5558835
20
93.1231243
11
4.5823882
21
93.1231243
0
LINE
8
DEFAULT_255_1_234
10
4.5823882
20
93.1231243
11
4.5823882
21
92.997026
0
LINE
8
DEFAULT_255_1_234
10
4.5823882
20
92.997026
11
4.5550803
21
92.997026
0
LINE
8
DEFAULT_255_1_234
10
4.0081189
20
92.3978583
11
4.0081189
21
92.4548836
0
LINE
8
DEFAULT_255_1_234
10
4.1575093
20
92.4356075
11
4.1575093
21
92.3809917
0
ARC
8
DEFAULT_255_1_234
10
4.5603151
20
92.4972455
40
0.4998079
50
90.6001036
51
104.514704
0
ARC
8
DEFAULT_255_1_234
10
4.5214667
20
92.6417131
40
0.3502176
50
104.2855254
51
133.862935
0
ARC
8
DEFAULT_255_1_234
10
4.5378424
20
92.630883
40
0.3693984
50
134.5302688
51
161.6210873
0
ARC
8
DEFAULT_255_1_234
10
4.7031613
20
92.5725895
40
0.5446739
50
161.2849839
51
174.2076652
0
ARC
8
DEFAULT_255_1_234
10
4.843855
20
92.5531787
40
0.6866274
50
173.7810589
51
174.9254635
0
ARC
8
DEFAULT_255_1_234
10
4.3888382
20
92.4148839
40
0.3033419
50
95.8330959
51
138.9954921
0
ARC
8
DEFAULT_255_1_234
10
4.4111738
20
92.2870375
40
0.4328947
50
89.8753725
51
97.0544009
0
ARC
8
DEFAULT_255_1_234
10
4.4159204
20
92.3705748
40
0.3493769
50
71.6407809
51
90.6240094
0
ARC
8
DEFAULT_255_1_234
10
4.4309777
20
92.4260082
40
0.2920396
50
39.6367836
51
71.019018
0
ARC
8
DEFAULT_255_1_234
10
4.367325
20
92.3709998
40
0.3761538
50
10.658731
51
39.9043955
0
ARC
8
DEFAULT_255_1_234
10
4.2125333
20
92.3373686
40
0.5345136
50
359.682601
51
11.132623
0
ARC
8
DEFAULT_255_1_234
10
4.2085464
20
92.330301
40
0.5385081
50
347.2486944
51
0.4369317
0
ARC
8
DEFAULT_255_1_234
10
4.3752941
20
92.2901807
40
0.3670249
50
318.1409698
51
347.6118597
0
ARC
8
DEFAULT_255_1_234
10
4.4077934
20
92.2634702
40
0.3250007
50
275.6342139
51
317.8248465
0
ARC
8
DEFAULT_255_1_234
10
4.3857045
20
92.3934219
40
0.4565864
50
269.8874292
51
276.7917694
0
ARC
8
DEFAULT_255_1_234
10
4.3802116
20
92.2908743
40
0.3540676
50
246.9140195
51
270.7437342
0
ARC
8
DEFAULT_255_1_234
10
4.3808506
20
92.2766384
40
0.3412781
50
218.1665114
51
245.878116
0
ARC
8
DEFAULT_255_1_234
10
4.4687967
20
92.3502279
40
0.455911
50
191.4115814
51
218.6077802
0
ARC
8
DEFAULT_255_1_234
10
4.6626056
20
92.3936833
40
0.6545001
50
179.6345085
51
191.7836486
0
ARC
8
DEFAULT_255_1_234
10
5.2208393
20
92.4615697
40
1.2127388
50
171.4525249
51
180.3158839
0
ARC
8
DEFAULT_255_1_234
10
4.7813269
20
92.5299608
40
0.7679464
50
157.9802646
51
171.6246686
0
ARC
8
DEFAULT_255_1_234
10
4.559929
20
92.6182421
40
0.5296008
50
141.4298019
51
157.854097
0
ARC
8
DEFAULT_255_1_234
10
4.495761
20
92.6636381
40
0.4511509
50
102.8715806
51
140.8564722
0
ARC
8
DEFAULT_255_1_234
10
4.5605226
20
92.4196552
40
0.7034845
50
90.3778349
51
103.5869322
0
ARC
8
DEFAULT_255_1_234
10
4.3867002
20
92.359173
40
0.2370698
50
89.8751008
51
126.2071704
0
ARC
8
DEFAULT_255_1_234
10
4.3912792
20
92.3437303
40
0.2522934
50
124.9745049
51
144.895901
0
ARC
8
DEFAULT_255_1_234
10
4.3736982
20
92.358056
40
0.2296779
50
145.2974905
51
160.2660252
0
ARC
8
DEFAULT_255_1_234
10
4.6809521
20
92.3778071
40
0.5234525
50
179.6514266
51
190.2855912
0
ARC
8
DEFAULT_255_1_234
10
4.5115658
20
92.3458786
40
0.3510893
50
190.0945431
51
207.5098196
0
ARC
8
DEFAULT_255_1_234
10
4.4549928
20
92.3189623
40
0.288489
50
207.9583163
51
216.3251085
0
ARC
8
DEFAULT_255_1_234
10
4.4210036
20
92.2910105
40
0.2445587
50
215.7661442
51
232.5456785
0
ARC
8
DEFAULT_255_1_234
10
4.3827019
20
92.2423482
40
0.1826382
50
232.8005391
51
270.6605633
0
ARC
8
DEFAULT_255_1_234
10
4.387272
20
92.2787612
40
0.2190529
50
269.35537
51
288.4744281
0
ARC
8
DEFAULT_255_1_234
10
4.3965617
20
92.2438118
40
0.1829749
50
289.1833337
51
322.9683818
0
ARC
8
DEFAULT_255_1_234
10
4.3354139
20
92.2920391
40
0.2608399
50
322.6007884
51
346.5182367
0
ARC
8
DEFAULT_255_1_234
10
4.2196735
20
92.3215616
40
0.3802777
50
346.2582162
51
358.7741648
0
ARC
8
DEFAULT_255_1_234
10
4.1178404
20
92.3270965
40
0.4822176
50
358.3755224
51
0.0098023
0
ARC
8
DEFAULT_255_1_234
10
4.1934591
20
92.3298657
40
0.4066078
50
359.6214041
51
11.2839074
0
ARC
8
DEFAULT_255_1_234
10
4.3211738
20
92.3565066
40
0.2761514
50
11.0482309
51
31.8146458
0
ARC
8
DEFAULT_255_1_234
10
4.3520781
20
92.3732584
40
0.2410679
50
32.3035391
51
38.082671
0
ARC
8
DEFAULT_255_1_234
10
4.3941441
20
92.4113662
40
0.1844966
50
36.825067
51
85.7415724
0
ARC
8
DEFAULT_255_1_234
10
4.3874274
20
92.3613301
40
0.2349122
50
85.0140713
51
90.0513278
0
LINE
8
DEFAULT_255_1_234
10
4.1864235
20
100.4461963
11
4.0675538
21
100.4767169
0
LINE
8
DEFAULT_255_1_234
10
4.0675538
20
100.4767169
11
4.1269887
21
101.0598211
0
LINE
8
DEFAULT_255_1_234
10
4.1269887
20
101.0598211
11
4.7261563
21
101.0598211
0
LINE
8
DEFAULT_255_1_234
10
4.7261563
20
101.0598211
11
4.7261563
21
100.9224784
0
LINE
8
DEFAULT_255_1_234
10
4.7261563
20
100.9224784
11
4.253087
21
100.9224784
0
LINE
8
DEFAULT_255_1_234
10
4.253087
20
100.9224784
11
4.2177473
21
100.6036184
0
LINE
8
DEFAULT_255_1_234
10
4.0257888
20
100.1980156
11
4.1663442
21
100.1980156
0
LINE
8
DEFAULT_255_1_234
10
4.2257791
20
100.4783232
11
4.1864235
21
100.4461963
0
ARC
8
DEFAULT_255_1_234
10
4.4032257
20
100.285623
40
0.3681349
50
93.7182161
51
120.2538958
0
ARC
8
DEFAULT_255_1_234
10
4.412652
20
100.2048394
40
0.449379
50
89.9660152
51
94.2496022
0
ARC
8
DEFAULT_255_1_234
10
4.4167254
20
100.2637549
40
0.390482
50
73.8043271
51
90.5585896
0
ARC
8
DEFAULT_255_1_234
10
4.4402151
20
100.3495602
40
0.3015334
50
41.3071453
51
73.5430202
0
ARC
8
DEFAULT_255_1_234
10
4.3985978
20
100.3137324
40
0.3564457
50
13.5075983
51
41.2174222
0
ARC
8
DEFAULT_255_1_234
10
4.2344182
20
100.2707486
40
0.5261351
50
1.1331335
51
13.8829381
0
ARC
8
DEFAULT_255_1_234
10
4.0932551
20
100.2631665
40
0.6674378
50
359.9919444
51
1.544251
0
ARC
8
DEFAULT_255_1_234
10
4.2209377
20
100.259028
40
0.5397702
50
347.8572367
51
0.4293338
0
ARC
8
DEFAULT_255_1_234
10
4.3959695
20
100.2193736
40
0.3603188
50
323.673004
51
348.1672506
0
ARC
8
DEFAULT_255_1_234
10
4.4254203
20
100.2014168
40
0.3259678
50
316.8171152
51
323.1492751
0
ARC
8
DEFAULT_255_1_234
10
4.4315392
20
100.197746
40
0.3189975
50
281.8396411
51
316.5457803
0
ARC
8
DEFAULT_255_1_234
10
4.3939656
20
100.3532762
40
0.4789527
50
269.5770101
51
282.4214771
0
ARC
8
DEFAULT_255_1_234
10
4.3868467
20
100.3319125
40
0.45759
50
256.2427136
51
270.4486331
0
ARC
8
DEFAULT_255_1_234
10
4.356937
20
100.2119229
40
0.3339303
50
228.9023911
51
256.3314342
0
ARC
8
DEFAULT_255_1_234
10
4.3495602
20
100.2002746
40
0.32031
50
193.753695
51
228.5271154
0
ARC
8
DEFAULT_255_1_234
10
4.4733556
20
100.23658
40
0.4492253
50
184.924711
51
194.497588
0
ARC
8
DEFAULT_255_1_234
10
4.4926123
20
100.2401591
40
0.3289787
50
187.3600538
51
198.6732863
0
ARC
8
DEFAULT_255_1_234
10
4.3876417
20
100.2037674
40
0.217884
50
198.4451669
51
217.794479
0
ARC
8
DEFAULT_255_1_234
10
4.3580592
20
100.1828085
40
0.1816698
50
218.2887171
51
228.5612368
0
ARC
8
DEFAULT_255_1_234
10
4.3678379
20
100.1959963
40
0.1980329
50
228.9654866
51
258.1234728
0
ARC
8
DEFAULT_255_1_234
10
4.3884089
20
100.2840833
40
0.2884748
50
257.7258293
51
270.401361
0
ARC
8
DEFAULT_255_1_234
10
4.3928975
20
100.2395821
40
0.2439788
50
269.4204404
51
286.4209037
0
ARC
8
DEFAULT_255_1_234
10
4.4077463
20
100.1856657
40
0.1880666
50
286.7251356
51
320.600362
0
ARC
8
DEFAULT_255_1_234
10
4.3694288
20
100.2167595
40
0.2374121
50
320.6712579
51
344.5441685
0
ARC
8
DEFAULT_255_1_234
10
4.2537614
20
100.2507045
40
0.3579479
50
344.2412205
51
356.7357071
0
ARC
8
DEFAULT_255_1_234
10
4.1288763
20
100.2610444
40
0.4832297
50
356.3548756
51
0.0500261
0
ARC
8
DEFAULT_255_1_234
10
4.2625272
20
100.264165
40
0.3495889
50
359.5576869
51
12.953486
0
ARC
8
DEFAULT_255_1_234
10
4.3680169
20
100.2897434
40
0.2410532
50
12.6490276
51
41.6081334
0
ARC
8
DEFAULT_255_1_234
10
4.391054
20
100.3093321
40
0.2108218
50
41.7850273
51
85.9892764
0
ARC
8
DEFAULT_255_1_234
10
4.3787277
20
100.2280462
40
0.2928454
50
84.6957577
51
90.0676183
0
ARC
8
DEFAULT_255_1_234
10
4.3763761
20
100.1611716
40
0.3597255
50
89.6804936
51
99.1614436
0
ARC
8
DEFAULT_255_1_234
10
4.3558392
20
100.2839131
40
0.235281
50
98.9830931
51
113.8908934
0
ARC
8
DEFAULT_255_1_234
10
4.3328802
20
100.3380587
40
0.176479
50
114.1950727
51
127.3641004
0
LINE
8
DEFAULT_255_1_234
10
4.8381628
20
108.9973211
11
4.8381628
21
108.220652
0
LINE
8
DEFAULT_255_1_234
10
4.8381628
20
108.220652
11
5.0004039
21
108.220652
0
LINE
8
DEFAULT_255_1_234
10
5.0004039
20
108.220652
11
5.0004039
21
108.0993728
0
LINE
8
DEFAULT_255_1_234
10
5.0004039
20
108.0993728
11
4.8381628
21
108.0993728
0
LINE
8
DEFAULT_255_1_234
10
4.8381628
20
108.0993728
11
4.8381628
21
107.8279
0
LINE
8
DEFAULT_255_1_234
10
4.8381628
20
107.8279
11
4.6887725
21
107.8279
0
LINE
8
DEFAULT_255_1_234
10
4.6887725
20
107.8279
11
4.6887725
21
108.0993728
0
LINE
8
DEFAULT_255_1_234
10
4.6887725
20
108.0993728
11
4.1562682
21
108.0993728
0
LINE
8
DEFAULT_255_1_234
10
4.1562682
20
108.0993728
11
4.1562682
21
108.1869187
0
LINE
8
DEFAULT_255_1_234
10
4.1562682
20
108.1869187
11
4.6799375
21
108.9973211
0
LINE
8
DEFAULT_255_1_234
10
4.6799375
20
108.9973211
11
4.8381628
21
108.9973211
0
LINE
8
DEFAULT_255_1_234
10
4.6711026
20
108.7619912
11
4.3249347
21
108.220652
0
LINE
8
DEFAULT_255_1_234
10
4.3249347
20
108.220652
11
4.6887725
21
108.220652
0
LINE
8
DEFAULT_255_1_234
10
4.6887725
20
108.220652
11
4.6887725
21
108.7941181
0
LINE
8
DEFAULT_255_1_234
10
4.6887725
20
108.7941181
11
4.6711026
21
108.7619912
0
LINE
8
DEFAULT_255_1_234
10
4.811023
20
116.1364663
11
4.9660355
21
116.1364663
0
LINE
8
DEFAULT_255_1_234
10
4.0656777
20
116.2954947
11
4.0656777
21
116.4079391
0
LINE
8
DEFAULT_255_1_234
10
4.9660355
20
116.5589357
11
4.811023
21
116.5589357
0
LINE
8
DEFAULT_255_1_234
10
4.2206902
20
116.4039232
11
4.2206902
21
116.2906757
0
ARC
8
DEFAULT_255_1_234
10
4.4179742
20
116.1961846
40
0.5513052
50
340.1774281
51
353.7814284
0
ARC
8
DEFAULT_255_1_234
10
4.5751095
20
116.1376582
40
0.3836379
50
311.4558989
51
340.4421614
0
ARC
8
DEFAULT_255_1_234
10
4.5717763
20
116.1487528
40
0.3941894
50
282.4333181
51
310.7513653
0
ARC
8
DEFAULT_255_1_234
10
4.5278502
20
116.3302679
40
0.5809175
50
269.9358511
51
282.809604
0
ARC
8
DEFAULT_255_1_234
10
4.5226568
20
116.4760212
40
0.7266847
50
270.0021091
51
270.3581957
0
ARC
8
DEFAULT_255_1_234
10
4.5173985
20
116.2159585
40
0.4666519
50
250.7884749
51
270.6489167
0
ARC
8
DEFAULT_255_1_234
10
4.500582
20
116.1522319
40
0.4009729
50
219.3627325
51
250.0611886
0
ARC
8
DEFAULT_255_1_234
10
4.5835031
20
116.2227042
40
0.5097822
50
193.5479632
51
219.5756669
0
ARC
8
DEFAULT_255_1_234
10
4.8206652
20
116.2842919
40
0.7547848
50
181.1218675
51
193.87563
0
ARC
8
DEFAULT_255_1_234
10
5.0276833
20
116.295358
40
0.9620055
50
179.9918545
51
181.5394234
0
ARC
8
DEFAULT_255_1_234
10
4.8425935
20
116.4116788
40
0.7769248
50
169.5837241
51
180.2757934
0
ARC
8
DEFAULT_255_1_234
10
4.6588873
20
116.4456229
40
0.590109
50
155.0365899
51
169.6003176
0
ARC
8
DEFAULT_255_1_234
10
4.5453337
20
116.5003677
40
0.4640625
50
136.783148
51
155.2472683
0
ARC
8
DEFAULT_255_1_234
10
4.5063814
20
116.5334562
40
0.4130255
50
121.7633186
51
136.428115
0
ARC
8
DEFAULT_255_1_234
10
4.5198776
20
116.5085227
40
0.4413323
50
95.6459699
51
121.5490577
0
ARC
8
DEFAULT_255_1_234
10
4.5356058
20
116.3976949
40
0.55319
50
89.924208
51
96.1377933
0
ARC
8
DEFAULT_255_1_234
10
4.5406491
20
116.4095542
40
0.5413475
50
76.6779277
51
90.4563316
0
ARC
8
DEFAULT_255_1_234
10
4.5800114
20
116.5686114
40
0.3775041
50
47.485847
51
76.9287264
0
ARC
8
DEFAULT_255_1_234
10
4.5653087
20
116.5586159
40
0.3948286
50
16.5424086
51
46.8933463
0
ARC
8
DEFAULT_255_1_234
10
4.4045244
20
116.5057861
40
0.564021
50
5.4072051
51
17.0365086
0
ARC
8
DEFAULT_255_1_234
10
4.2606261
20
116.4826679
40
0.5556559
50
7.8891745
51
15.9239216
0
ARC
8
DEFAULT_255_1_234
10
4.4593274
20
116.5403631
40
0.3487515
50
15.7653144
51
27.9410532
0
ARC
8
DEFAULT_255_1_234
10
4.5697492
20
116.599479
40
0.2235026
50
27.8166557
51
46.4008329
0
ARC
8
DEFAULT_255_1_234
10
4.5747135
20
116.5989082
40
0.2205286
50
47.4371857
51
75.0698205
0
ARC
8
DEFAULT_255_1_234
10
4.5438529
20
116.4914765
40
0.3322915
50
74.7008593
51
87.8124495
0
ARC
8
DEFAULT_255_1_234
10
4.5365217
20
116.3858844
40
0.4380987
50
87.3814673
51
90.0240855
0
ARC
8
DEFAULT_255_1_234
10
4.532676
20
116.5036291
40
0.3203749
50
89.3451631
51
108.5745436
0
ARC
8
DEFAULT_255_1_234
10
4.5189865
20
116.5549908
40
0.2673494
50
109.2998449
51
143.3037509
0
ARC
8
DEFAULT_255_1_234
10
4.5951938
20
116.4963881
40
0.3634757
50
143.0753173
51
163.1916937
0
ARC
8
DEFAULT_255_1_234
10
4.7903666
20
116.4347967
40
0.5681262
50
162.9373603
51
174.6208611
0
ARC
8
DEFAULT_255_1_234
10
5.0529708
20
116.406001
40
0.8322832
50
174.3419979
51
180.1430411
0
ARC
8
DEFAULT_255_1_234
10
4.9598864
20
116.2865698
40
0.7392076
50
179.6817502
51
189.150529
0
ARC
8
DEFAULT_255_1_234
10
4.7098112
20
116.244919
40
0.4856932
50
188.9910863
51
203.5773039
0
ARC
8
DEFAULT_255_1_234
10
4.6018445
20
116.2001211
40
0.3688271
50
203.9077269
51
215.1312379
0
ARC
8
DEFAULT_255_1_234
10
4.5095539
20
116.1285941
40
0.2522457
50
213.9071664
51
263.8849284
0
ARC
8
DEFAULT_255_1_234
10
4.5220868
20
116.2070518
40
0.3316174
50
263.1758525
51
270.1031083
0
ARC
8
DEFAULT_255_1_234
10
4.525296
20
116.3317365
40
0.4563091
50
269.6719807
51
279.0609165
0
ARC
8
DEFAULT_255_1_234
10
4.5519728
20
116.1704907
40
0.2928759
50
278.8750225
51
293.6346586
0
ARC
8
DEFAULT_255_1_234
10
4.5839936
20
116.09529
40
0.2111472
50
293.8553404
51
310.0518804
0
ARC
8
DEFAULT_255_1_234
10
4.584479
20
116.0890516
40
0.2060917
50
311.0646779
51
332.0108348
0
ARC
8
DEFAULT_255_1_234
10
4.4652517
20
116.1547978
40
0.3422352
50
331.6588543
51
343.2878891
0
ARC
8
DEFAULT_255_1_234
10
4.2590032
20
116.2181798
40
0.5580003
50
343.1446044
51
351.010618
0
ARC
8
DEFAULT_255_1_234
10
4.1048678
20
116.2462871
40
0.7146438
50
350.7157277
51
351.1602153
0
LINE
8
DEFAULT_255_1_234
10
5.8712125
20
116.4569327
11
5.8712125
21
116.2641709
0
LINE
8
DEFAULT_255_1_234
10
5.1330957
20
116.2440916
11
5.1330957
21
116.4424755
0
LINE
8
DEFAULT_255_1_234
10
5.7226253
20
116.2240123
11
5.7226253
21
116.4673739
0
LINE
8
DEFAULT_255_1_234
10
5.2816829
20
116.4786184
11
5.2816829
21
116.2408789
0
ARC
8
DEFAULT_255_1_234
10
4.6465014
20
116.2592805
40
1.2247208
50
353.8441951
51
0.2287902
0
ARC
8
DEFAULT_255_1_234
10
5.1104518
20
116.2074806
40
0.7578929
50
344.4934747
51
353.9765454
0
ARC
8
DEFAULT_255_1_234
10
5.4097108
20
116.1223981
40
0.4467846
50
329.2803592
51
344.7472793
0
ARC
8
DEFAULT_255_1_234
10
5.5089933
20
116.0679018
40
0.3336173
50
324.9352394
51
328.6160465
0
ARC
8
DEFAULT_255_1_234
10
5.5467042
20
116.0415427
40
0.2876076
50
280.580143
51
324.9173126
0
ARC
8
DEFAULT_255_1_234
10
5.5065834
20
116.2086099
40
0.4592847
50
269.5977311
51
281.6734359
0
ARC
8
DEFAULT_255_1_234
10
5.499374
20
116.1966173
40
0.4472986
50
256.6228859
51
270.51044
0
ARC
8
DEFAULT_255_1_234
10
5.4591718
20
116.0417877
40
0.2873874
50
215.8618325
51
257.2788573
0
ARC
8
DEFAULT_255_1_234
10
5.5612749
20
116.1102977
40
0.4102928
50
197.9693508
51
215.2623606
0
ARC
8
DEFAULT_255_1_234
10
5.8097865
20
116.1941709
40
0.6725652
50
187.8816417
51
198.2346507
0
ARC
8
DEFAULT_255_1_234
10
6.2056073
20
116.2513079
40
1.0724845
50
180.8976217
51
188.0055519
0
ARC
8
DEFAULT_255_1_234
10
6.4856261
20
116.2616777
40
1.3526448
50
180.7449369
51
181.1510016
0
ARC
8
DEFAULT_255_1_234
10
6.327899
20
116.4473042
40
1.1948131
50
173.7675579
51
180.231553
0
ARC
8
DEFAULT_255_1_234
10
5.8761137
20
116.4983666
40
0.7401564
50
164.3058563
51
173.9002247
0
ARC
8
DEFAULT_255_1_234
10
5.5849206
20
116.5822656
40
0.4371288
50
148.7922025
51
164.568378
0
ARC
8
DEFAULT_255_1_234
10
5.4897658
20
116.6353929
40
0.3282386
50
144.5883898
51
148.1176286
0
ARC
8
DEFAULT_255_1_234
10
5.4554556
20
116.6593315
40
0.2864044
50
101.6440918
51
144.514236
0
ARC
8
DEFAULT_255_1_234
10
5.4979623
20
116.4904069
40
0.4604934
50
89.5284041
51
102.5819763
0
ARC
8
DEFAULT_255_1_234
10
5.505871
20
116.4865018
40
0.464401
50
77.0437873
51
90.5081339
0
ARC
8
DEFAULT_255_1_234
10
5.5460712
20
116.6507615
40
0.2953195
50
48.2778575
51
77.4994676
0
ARC
8
DEFAULT_255_1_234
10
5.5533343
20
116.6636746
40
0.2808655
50
36.3142134
51
47.6305865
0
ARC
8
DEFAULT_255_1_234
10
5.466465
20
116.6051515
40
0.3855453
50
18.2931786
51
35.6769206
0
ARC
8
DEFAULT_255_1_234
10
5.2121409
20
116.5178593
40
0.654423
50
8.024666
51
18.5605216
0
ARC
8
DEFAULT_255_1_234
10
4.7958329
20
116.4563792
40
1.0752407
50
1.1274072
51
8.1718305
0
ARC
8
DEFAULT_255_1_234
10
4.472252
20
116.4436885
40
1.3990231
50
0.5424119
51
1.3863029
0
ARC
8
DEFAULT_255_1_234
10
4.6543898
20
116.4709342
40
1.0682415
50
359.8090433
51
4.9407866
0
ARC
8
DEFAULT_255_1_234
10
5.0753912
20
116.5085113
40
0.6455691
50
4.8362157
51
12.2904523
0
ARC
8
DEFAULT_255_1_234
10
5.3509026
20
116.5698965
40
0.3633074
50
12.0805627
51
23.8173984
0
ARC
8
DEFAULT_255_1_234
10
5.4682732
20
116.6195919
40
0.2358723
50
24.2871213
51
31.3935614
0
ARC
8
DEFAULT_255_1_234
10
5.5207429
20
116.6539233
40
0.1732111
50
30.7407893
51
82.4657128
0
ARC
8
DEFAULT_255_1_234
10
5.5027563
20
116.5655691
40
0.263235
50
81.1060089
51
90.2184952
0
ARC
8
DEFAULT_255_1_234
10
5.4991862
20
116.5913924
40
0.2374236
50
89.3806855
51
105.6762551
0
ARC
8
DEFAULT_255_1_234
10
5.4808493
20
116.6580567
40
0.1682847
50
105.7981136
51
149.7388061
0
ARC
8
DEFAULT_255_1_234
10
5.5872571
20
116.594095
40
0.2924306
50
149.4208916
51
163.6286378
0
ARC
8
DEFAULT_255_1_234
10
5.7963459
20
116.530325
40
0.5110213
50
163.3763315
51
172.1410975
0
ARC
8
DEFAULT_255_1_234
10
6.1264178
20
116.4830518
40
0.8444586
50
172.0259487
51
178.0703232
0
ARC
8
DEFAULT_255_1_234
10
6.4294268
20
116.4686906
40
1.1477868
50
177.8631668
51
179.5044149
0
ARC
8
DEFAULT_255_1_234
10
6.3221672
20
116.2372389
40
1.0404907
50
179.7995573
51
185.2460446
0
ARC
8
DEFAULT_255_1_234
10
5.9178711
20
116.1989513
40
0.6343885
50
185.1411642
51
193.0079639
0
ARC
8
DEFAULT_255_1_234
10
5.6535184
20
116.1364641
40
0.3627568
50
192.7897626
51
205.2507664
0
ARC
8
DEFAULT_255_1_234
10
5.5488731
20
116.0897415
40
0.2481908
50
205.8005384
51
211.2537509
0
ARC
8
DEFAULT_255_1_234
10
5.4965171
20
116.054658
40
0.1852521
50
210.3789793
51
238.4008143
0
ARC
8
DEFAULT_255_1_234
10
5.4945693
20
116.0593376
40
0.1882621
50
239.6520629
51
265.9793761
0
ARC
8
DEFAULT_255_1_234
10
5.5030893
20
116.1265427
40
0.2559272
50
265.1315437
51
270.060332
0
ARC
8
DEFAULT_255_1_234
10
5.5059672
20
116.0941534
40
0.2235528
50
269.3314664
51
287.2178029
0
ARC
8
DEFAULT_255_1_234
10
5.5197524
20
116.0438279
40
0.1714108
50
287.7958004
51
329.080874
0
ARC
8
DEFAULT_255_1_234
10
5.4239981
20
116.103593
40
0.2842745
50
328.6634704
51
343.3325132
0
ARC
8
DEFAULT_255_1_234
10
5.2067001
20
116.1712863
40
0.5118644
50
343.0499468
51
351.9393422
0
ARC
8
DEFAULT_255_1_234
10
4.8600301
20
116.2223949
40
0.8622784
50
351.8069023
51
357.7959224
0
ARC
8
DEFAULT_255_1_234
10
4.5364857
20
116.2391721
40
1.1862365
50
357.5871873
51
359.2677531
0
LINE
8
DEFAULT_255_1_234
10
4.2153378
20
124.2386169
11
4.2153378
21
124.3598962
0
LINE
8
DEFAULT_255_1_234
10
4.2153378
20
124.3598962
11
4.326979
21
124.3598962
0
LINE
8
DEFAULT_255_1_234
10
4.1366268
20
124.5655087
11
3.9880396
21
124.5655087
0
LINE
8
DEFAULT_255_1_234
10
3.9775983
20
124.0113188
11
4.1269887
21
124.0113188
0
LINE
8
DEFAULT_255_1_234
10
4.326979
20
124.2386169
11
4.2153378
21
124.2386169
0
ARC
8
DEFAULT_255_1_234
10
4.3240656
20
124.6991713
40
0.3392876
50
270.4919872
51
281.8951556
0
ARC
8
DEFAULT_255_1_234
10
4.3481918
20
124.5889702
40
0.2264817
50
281.6691735
51
301.2943132
0
ARC
8
DEFAULT_255_1_234
10
4.3652128
20
124.5578304
40
0.1910381
50
301.7833094
51
311.7545298
0
ARC
8
DEFAULT_255_1_234
10
4.3743704
20
124.5476748
40
0.1773635
50
311.7323931
51
354.2802411
0
ARC
8
DEFAULT_255_1_234
10
4.3017329
20
124.5601722
40
0.2509385
50
353.0937916
51
0.1181479
0
ARC
8
DEFAULT_255_1_234
10
4.2556114
20
124.5649386
40
0.2970898
50
359.1805295
51
15.0453146
0
ARC
8
DEFAULT_255_1_234
10
4.3901951
20
124.6041992
40
0.1569564
50
13.9577229
51
77.6713066
0
ARC
8
DEFAULT_255_1_234
10
4.351548
20
124.4656949
40
0.3006298
50
76.1116566
51
90.7026153
0
ARC
8
DEFAULT_255_1_234
10
4.3456318
20
124.4930545
40
0.2732568
50
89.5324876
51
103.531937
0
ARC
8
DEFAULT_255_1_234
10
4.3255762
20
124.5729884
40
0.1908508
50
103.2931773
51
133.5619022
0
ARC
8
DEFAULT_255_1_234
10
4.3211251
20
124.5789375
40
0.1834746
50
133.8349307
51
173.5344437
0
ARC
8
DEFAULT_255_1_234
10
4.3934294
20
124.5661213
40
0.2568033
50
172.5096846
51
180.1366907
0
ARC
8
DEFAULT_255_1_234
10
4.2983188
20
124.5695622
40
0.3103056
50
155.3484492
51
180.7484736
0
ARC
8
DEFAULT_255_1_234
10
4.2934277
20
124.5666846
40
0.3070957
50
131.5744599
51
154.4798489
0
ARC
8
DEFAULT_255_1_234
10
4.3247424
20
124.535031
40
0.3515643
50
96.9875458
51
131.9690667
0
ARC
8
DEFAULT_255_1_234
10
4.3466904
20
124.4104636
40
0.4779224
50
89.8596053
51
97.7825159
0
ARC
8
DEFAULT_255_1_234
10
4.3514967
20
124.3842616
40
0.5041361
50
78.3655447
51
90.4131539
0
ARC
8
DEFAULT_255_1_234
10
4.3872885
20
124.5501887
40
0.3344039
50
56.6229102
51
78.638727
0
ARC
8
DEFAULT_255_1_234
10
4.4087829
20
124.5877805
40
0.2912001
50
47.0253525
51
56.0854072
0
ARC
8
DEFAULT_255_1_234
10
4.4107609
20
124.5917223
40
0.2869704
50
10.9208013
51
46.7778124
0
ARC
8
DEFAULT_255_1_234
10
4.2743675
20
124.5601857
40
0.426899
50
359.6364486
51
11.6087304
0
ARC
8
DEFAULT_255_1_234
10
4.4578519
20
124.5586752
40
0.243409
50
332.3549906
51
359.7179418
0
ARC
8
DEFAULT_255_1_234
10
4.3928121
20
124.5895142
40
0.3153459
50
325.2333722
51
332.8745602
0
ARC
8
DEFAULT_255_1_234
10
4.4080744
20
124.5788828
40
0.2967456
50
292.9802137
51
325.2392345
0
ARC
8
DEFAULT_255_1_234
10
4.3806118
20
124.6322863
40
0.3566604
50
292.5402179
51
293.6924929
0
ARC
8
DEFAULT_255_1_234
10
4.4198714
20
123.9868091
40
0.3307468
50
57.6435486
51
72.8625112
0
ARC
8
DEFAULT_255_1_234
10
4.4553214
20
124.0442549
40
0.2632492
50
36.7248896
51
57.4697979
0
ARC
8
DEFAULT_255_1_234
10
4.4541847
20
124.045522
40
0.2634081
50
8.0545065
51
36.356114
0
ARC
8
DEFAULT_255_1_234
10
4.3679032
20
124.0300174
40
0.3510261
50
359.8320645
51
8.5869982
0
ARC
8
DEFAULT_255_1_234
10
4.3303808
20
124.0252101
40
0.3885653
50
343.9829931
51
0.5571613
0
ARC
8
DEFAULT_255_1_234
10
4.4190005
20
124.0009438
40
0.2966924
50
311.6359546
51
343.7651759
0
ARC
8
DEFAULT_255_1_234
10
4.3811574
20
124.0436102
40
0.3537231
50
279.7829875
51
311.6255694
0
ARC
8
DEFAULT_255_1_234
10
4.3510351
20
124.187328
40
0.5004971
50
269.7286406
51
280.3856417
0
ARC
8
DEFAULT_255_1_234
10
4.3448423
20
124.1831996
40
0.4963778
50
256.6828919
51
270.4412052
0
ARC
8
DEFAULT_255_1_234
10
4.3109719
20
124.0447394
40
0.3538406
50
229.4223008
51
256.8556159
0
ARC
8
DEFAULT_255_1_234
10
4.2695112
20
123.9980736
40
0.2914296
50
181.818294
51
229.6455059
0
ARC
8
DEFAULT_255_1_234
10
4.3735068
20
124.0111496
40
0.3959084
50
179.9755256
51
183.2323064
0
ARC
8
DEFAULT_255_1_234
10
4.3562814
20
124.0091037
40
0.2293034
50
179.4465117
51
196.2869258
0
ARC
8
DEFAULT_255_1_234
10
4.3075222
20
123.9957651
40
0.1787621
50
196.5661473
51
227.705904
0
ARC
8
DEFAULT_255_1_234
10
4.3239317
20
124.0141155
40
0.2033784
50
227.7652068
51
257.8762805
0
ARC
8
DEFAULT_255_1_234
10
4.3464287
20
124.1084156
40
0.3003081
50
257.4584385
51
270.426602
0
ARC
8
DEFAULT_255_1_234
10
4.3509853
20
124.1373996
40
0.329292
50
269.5962073
51
280.8789248
0
ARC
8
DEFAULT_255_1_234
10
4.3739382
20
124.0227685
40
0.2123908
50
280.6346389
51
299.8595945
0
ARC
8
DEFAULT_255_1_234
10
4.3930289
20
123.9865212
40
0.171457
50
300.3576302
51
314.5517981
0
ARC
8
DEFAULT_255_1_234
10
4.3847349
20
123.9925919
40
0.1816095
50
315.0728369
51
345.0431014
0
ARC
8
DEFAULT_255_1_234
10
4.2924163
20
124.0194841
40
0.2777492
50
344.5986631
51
357.9269593
0
ARC
8
DEFAULT_255_1_234
10
4.2028489
20
124.0256276
40
0.3674917
50
357.4748886
51
0.0231117
0
ARC
8
DEFAULT_255_1_234
10
4.3051599
20
124.0280679
40
0.2651907
50
359.5047933
51
13.4239635
0
ARC
8
DEFAULT_255_1_234
10
4.3918242
20
124.0502478
40
0.1757509
50
12.9498199
51
48.7551375
0
ARC
8
DEFAULT_255_1_234
10
4.3735976
20
124.02534
40
0.2065134
50
49.5088623
51
72.1836453
0
ARC
8
DEFAULT_255_1_234
10
4.3378129
20
123.9191291
40
0.3185836
50
71.9010081
51
84.3554254
0
ARC
8
DEFAULT_255_1_234
10
4.3216761
20
123.7830326
40
0.4556151
50
84.0193428
51
89.333121
0
LINE
8
DEFAULT_255_1_234
10
4.7655119
20
131.7616792
11
4.7655119
21
131.6404
0
LINE
8
DEFAULT_255_1_234
10
4.7655119
20
131.6404
11
3.999284
21
131.6404
0
LINE
8
DEFAULT_255_1_234
10
3.999284
20
131.6404
11
3.999284
21
131.7472221
0
LINE
8
DEFAULT_255_1_234
10
3.999284
20
131.7472221
11
4.4040836
21
132.1969995
0
LINE
8
DEFAULT_255_1_234
10
4.1253823
20
132.4652595
11
3.9767952
21
132.4652595
0
LINE
8
DEFAULT_255_1_234
10
4.4916296
20
132.1014218
11
4.1783918
21
131.7616792
0
LINE
8
DEFAULT_255_1_234
10
4.1783918
20
131.7616792
11
4.7655119
21
131.7616792
0
ARC
8
DEFAULT_255_1_234
10
3.055067
20
133.3899527
40
1.8008286
50
318.5132453
51
320.7828378
0
ARC
8
DEFAULT_255_1_234
10
3.5837644
20
132.9596426
40
1.1191493
50
320.7372736
51
323.9737074
0
ARC
8
DEFAULT_255_1_234
10
3.9757501
20
132.6756361
40
0.6350923
50
323.8961724
51
328.6421089
0
ARC
8
DEFAULT_255_1_234
10
4.1804096
20
132.5494031
40
0.3946393
50
328.8299013
51
331.789948
0
ARC
8
DEFAULT_255_1_234
10
4.2801274
20
132.4979509
40
0.2824501
50
331.4255242
51
352.9364833
0
ARC
8
DEFAULT_255_1_234
10
4.2937775
20
132.4948976
40
0.2685315
50
353.2248685
51
0.0169286
0
ARC
8
DEFAULT_255_1_234
10
4.3147652
20
132.497195
40
0.2475536
50
359.4866256
51
15.9339782
0
ARC
8
DEFAULT_255_1_234
10
4.3654637
20
132.5108286
40
0.1950618
50
16.1714718
51
43.5284424
0
ARC
8
DEFAULT_255_1_234
10
4.3731946
20
132.5185573
40
0.184134
50
43.4415429
51
83.1661404
0
ARC
8
DEFAULT_255_1_234
10
4.3597864
20
132.4448771
40
0.258926
50
82.160215
51
90.1505798
0
ARC
8
DEFAULT_255_1_234
10
4.3566291
20
132.3911865
40
0.3126255
50
89.5460705
51
102.5418777
0
ARC
8
DEFAULT_255_1_234
10
4.3323377
20
132.4942665
40
0.2067346
50
102.1739365
51
129.2061916
0
ARC
8
DEFAULT_255_1_234
10
4.3244449
20
132.5067094
40
0.1921118
50
129.7279328
51
135.7542026
0
ARC
8
DEFAULT_255_1_234
10
4.3365977
20
132.4970045
40
0.2075944
50
136.175737
51
166.3674722
0
ARC
8
DEFAULT_255_1_234
10
4.4372896
20
132.4700182
40
0.3118201
50
165.9092917
51
178.8683903
0
ARC
8
DEFAULT_255_1_234
10
4.5237757
20
132.4653179
40
0.3983935
50
178.438168
51
180.0083905
0
ARC
8
DEFAULT_255_1_234
10
4.3836359
20
132.4692231
40
0.4068601
50
163.2878735
51
180.5581814
0
ARC
8
DEFAULT_255_1_234
10
4.3034621
20
132.491284
40
0.3237344
50
133.454115
51
162.9470031
0
ARC
8
DEFAULT_255_1_234
10
4.3213162
20
132.4723
40
0.349795
50
100.7869394
51
133.4384016
0
ARC
8
DEFAULT_255_1_234
10
4.3560934
20
132.3174319
40
0.5084616
50
89.6605301
51
101.3704185
0
ARC
8
DEFAULT_255_1_234
10
4.3627273
20
132.3235496
40
0.502348
50
78.2171172
51
90.4130393
0
ARC
8
DEFAULT_255_1_234
10
4.3982351
20
132.4859637
40
0.3361092
50
55.9268222
51
78.4888551
0
ARC
8
DEFAULT_255_1_234
10
4.4178791
20
132.5198324
40
0.2970617
50
47.9292255
51
55.4054003
0
ARC
8
DEFAULT_255_1_234
10
4.4280352
20
132.5301502
40
0.2825983
50
4.3347696
51
48.0560701
0
ARC
8
DEFAULT_255_1_234
10
4.3184745
20
132.5131601
40
0.393225
50
359.925209
51
5.5967654
0
ARC
8
DEFAULT_255_1_234
10
4.3613637
20
132.5187816
40
0.3503892
50
337.8914096
51
358.9967724
0
ARC
8
DEFAULT_255_1_234
10
4.0900049
20
132.6234706
40
0.6412172
50
326.9135351
51
338.3505194
0
ARC
8
DEFAULT_255_1_234
10
3.6914353
20
132.8789284
40
1.1146189
50
319.6472867
51
327.095818
0
ARC
8
DEFAULT_255_1_234
10
3.3081356
20
133.1951
40
1.6114559
50
317.2586784
51
319.9046139
0
LINE
8
DEFAULT_255_1_234
10
4.4793137
20
140.7529433
11
4.4793137
21
139.5779
0
LINE
8
DEFAULT_255_1_234
10
4.4793137
20
139.5779
11
4.3299234
21
139.5779
0
LINE
8
DEFAULT_255_1_234
10
4.3299234
20
139.5779
11
4.3299234
21
140.5682133
0
LINE
8
DEFAULT_255_1_234
10
4.3299234
20
140.5682133
11
4.0303396
21
140.4581785
0
LINE
8
DEFAULT_255_1_234
10
4.0303396
20
140.4581785
11
4.0303396
21
140.5931117
0
LINE
8
DEFAULT_255_1_234
10
4.0303396
20
140.5931117
11
4.4560217
21
140.7529433
0
LINE
8
DEFAULT_255_1_234
10
4.4560217
20
140.7529433
11
4.4793137
21
140.7529433
0
LINE
8
DEFAULT_255_1_234
10
4.7325817
20
148.2069327
11
4.7325817
21
148.0141709
0
LINE
8
DEFAULT_255_1_234
10
3.994465
20
147.9940916
11
3.994465
21
148.1924755
0
LINE
8
DEFAULT_255_1_234
10
4.5839946
20
147.9740123
11
4.5839946
21
148.2173739
0
LINE
8
DEFAULT_255_1_234
10
4.1430521
20
148.2286184
11
4.1430521
21
147.9908789
0
ARC
8
DEFAULT_255_1_234
10
3.5078707
20
148.0092805
40
1.2247208
50
353.8441951
51
0.2287902
0
ARC
8
DEFAULT_255_1_234
10
3.9718211
20
147.9574806
40
0.7578929
50
344.4934747
51
353.9765454
0
ARC
8
DEFAULT_255_1_234
10
4.2710801
20
147.8723981
40
0.4467846
50
329.2803592
51
344.7472793
0
ARC
8
DEFAULT_255_1_234
10
4.3703626
20
147.8179018
40
0.3336173
50
324.9352394
51
328.6160465
0
ARC
8
DEFAULT_255_1_234
10
4.4080734
20
147.7915427
40
0.2876076
50
280.580143
51
324.9173126
0
ARC
8
DEFAULT_255_1_234
10
4.3679527
20
147.9586099
40
0.4592847
50
269.5977311
51
281.6734359
0
ARC
8
DEFAULT_255_1_234
10
4.3607433
20
147.9466173
40
0.4472986
50
256.6228859
51
270.51044
0
ARC
8
DEFAULT_255_1_234
10
4.320541
20
147.7917877
40
0.2873874
50
215.8618325
51
257.2788573
0
ARC
8
DEFAULT_255_1_234
10
4.4226442
20
147.8602977
40
0.4102928
50
197.9693508
51
215.2623606
0
ARC
8
DEFAULT_255_1_234
10
4.6711558
20
147.9441709
40
0.6725652
50
187.8816417
51
198.2346507
0
ARC
8
DEFAULT_255_1_234
10
5.0669766
20
148.0013079
40
1.0724845
50
180.8976217
51
188.0055519
0
ARC
8
DEFAULT_255_1_234
10
5.3469954
20
148.0116777
40
1.3526448
50
180.7449369
51
181.1510016
0
ARC
8
DEFAULT_255_1_234
10
5.1892683
20
148.1973042
40
1.1948131
50
173.7675579
51
180.231553
0
ARC
8
DEFAULT_255_1_234
10
4.737483
20
148.2483666
40
0.7401564
50
164.3058563
51
173.9002247
0
ARC
8
DEFAULT_255_1_234
10
4.4462899
20
148.3322656
40
0.4371288
50
148.7922025
51
164.568378
0
ARC
8
DEFAULT_255_1_234
10
4.3511351
20
148.3853929
40
0.3282386
50
144.5883898
51
148.1176286
0
ARC
8
DEFAULT_255_1_234
10
4.3168249
20
148.4093315
40
0.2864044
50
101.6440918
51
144.514236
0
ARC
8
DEFAULT_255_1_234
10
4.3593315
20
148.2404069
40
0.4604934
50
89.5284041
51
102.5819763
0
ARC
8
DEFAULT_255_1_234
10
4.3672403
20
148.2365018
40
0.464401
50
77.0437873
51
90.5081339
0
ARC
8
DEFAULT_255_1_234
10
4.4074405
20
148.4007615
40
0.2953195
50
48.2778575
51
77.4994676
0
ARC
8
DEFAULT_255_1_234
10
4.4147036
20
148.4136746
40
0.2808655
50
36.3142134
51
47.6305865
0
ARC
8
DEFAULT_255_1_234
10
4.3278343
20
148.3551515
40
0.3855453
50
18.2931786
51
35.6769206
0
ARC
8
DEFAULT_255_1_234
10
4.0735102
20
148.2678593
40
0.654423
50
8.024666
51
18.5605216
0
ARC
8
DEFAULT_255_1_234
10
3.6572022
20
148.2063792
40
1.0752407
50
1.1274072
51
8.1718305
0
ARC
8
DEFAULT_255_1_234
10
3.3336213
20
148.1936885
40
1.3990231
50
0.5424119
51
1.3863029
0
ARC
8
DEFAULT_255_1_234
10
3.515759
20
148.2209342
40
1.0682415
50
359.8090433
51
4.9407866
0
ARC
8
DEFAULT_255_1_234
10
3.9367604
20
148.2585113
40
0.6455691
50
4.8362157
51
12.2904523
0
ARC
8
DEFAULT_255_1_234
10
4.2122719
20
148.3198965
40
0.3633074
50
12.0805627
51
23.8173984
0
ARC
8
DEFAULT_255_1_234
10
4.3296425
20
148.3695919
40
0.2358723
50
24.2871213
51
31.3935614
0
ARC
8
DEFAULT_255_1_234
10
4.3821122
20
148.4039233
40
0.1732111
50
30.7407893
51
82.4657128
0
ARC
8
DEFAULT_255_1_234
10
4.3641256
20
148.3155691
40
0.263235
50
81.1060089
51
90.2184952
0
ARC
8
DEFAULT_255_1_234
10
4.3605555
20
148.3413924
40
0.2374236
50
89.3806855
51
105.6762551
0
ARC
8
DEFAULT_255_1_234
10
4.3422186
20
148.4080567
40
0.1682847
50
105.7981136
51
149.7388061
0
ARC
8
DEFAULT_255_1_234
10
4.4486264
20
148.344095
40
0.2924306
50
149.4208916
51
163.6286378
0
ARC
8
DEFAULT_255_1_234
10
4.6577152
20
148.280325
40
0.5110213
50
163.3763315
51
172.1410975
0
ARC
8
DEFAULT_255_1_234
10
4.9877871
20
148.2330518
40
0.8444586
50
172.0259487
51
178.0703232
0
ARC
8
DEFAULT_255_1_234
10
5.290796
20
148.2186906
40
1.1477868
50
177.8631668
51
179.5044149
0
ARC
8
DEFAULT_255_1_234
10
5.1835365
20
147.9872389
40
1.0404907
50
179.7995573
51
185.2460446
0
ARC
8
DEFAULT_255_1_234
10
4.7792404
20
147.9489513
40
0.6343885
50
185.1411642
51
193.0079639
0
ARC
8
DEFAULT_255_1_234
10
4.5148877
20
147.8864641
40
0.3627568
50
192.7897626
51
205.2507664
0
ARC
8
DEFAULT_255_1_234
10
4.4102424
20
147.8397415
40
0.2481908
50
205.8005384
51
211.2537509
0
ARC
8
DEFAULT_255_1_234
10
4.3578864
20
147.804658
40
0.1852521
50
210.3789793
51
238.4008143
0
ARC
8
DEFAULT_255_1_234
10
4.3559386
20
147.8093376
40
0.1882621
50
239.6520629
51
265.9793761
0
ARC
8
DEFAULT_255_1_234
10
4.3644586
20
147.8765427
40
0.2559272
50
265.1315437
51
270.060332
0
ARC
8
DEFAULT_255_1_234
10
4.3673365
20
147.8441534
40
0.2235528
50
269.3314664
51
287.2178029
0
ARC
8
DEFAULT_255_1_234
10
4.3811217
20
147.7938279
40
0.1714108
50
287.7958004
51
329.080874
0
ARC
8
DEFAULT_255_1_234
10
4.2853674
20
147.853593
40
0.2842745
50
328.6634704
51
343.3325132
0
ARC
8
DEFAULT_255_1_234
10
4.0680694
20
147.9212863
40
0.5118644
50
343.0499468
51
351.9393422
0
ARC
8
DEFAULT_255_1_234
10
3.7213994
20
147.9723949
40
0.8622784
50
351.8069023
51
357.7959224
0
ARC
8
DEFAULT_255_1_234
10
3.397855
20
147.9891721
40
1.1862365
50
357.5871873
51
359.2677531
0
LINE
8
DEFAULT_255_1_234
10
4.9274119
20
155.5741792
11
4.9274119
21
155.4529
0
LINE
8
DEFAULT_255_1_234
10
4.9274119
20
155.4529
11
4.161184
21
155.4529
0
LINE
8
DEFAULT_255_1_234
10
4.161184
20
155.4529
11
4.161184
21
155.5597221
0
LINE
8
DEFAULT_255_1_234
10
4.161184
20
155.5597221
11
4.5659836
21
156.0094995
0
LINE
8
DEFAULT_255_1_234
10
4.2872823
20
156.2777595
11
4.1386952
21
156.2777595
0
LINE
8
DEFAULT_255_1_234
10
4.6535296
20
155.9139218
11
4.3402918
21
155.5741792
0
LINE
8
DEFAULT_255_1_234
10
4.3402918
20
155.5741792
11
4.9274119
21
155.5741792
0
ARC
8
DEFAULT_255_1_234
10
3.216967
20
157.2024527
40
1.8008286
50
318.5132453
51
320.7828378
0
ARC
8
DEFAULT_255_1_234
10
3.7456644
20
156.7721426
40
1.1191493
50
320.7372736
51
323.9737074
0
ARC
8
DEFAULT_255_1_234
10
4.1376501
20
156.4881361
40
0.6350923
50
323.8961724
51
328.6421089
0
ARC
8
DEFAULT_255_1_234
10
4.3423096
20
156.3619031
40
0.3946393
50
328.8299013
51
331.789948
0
ARC
8
DEFAULT_255_1_234
10
4.4420274
20
156.3104509
40
0.2824501
50
331.4255242
51
352.9364833
0
ARC
8
DEFAULT_255_1_234
10
4.4556775
20
156.3073976
40
0.2685315
50
353.2248685
51
0.0169286
0
ARC
8
DEFAULT_255_1_234
10
4.4766652
20
156.309695
40
0.2475536
50
359.4866256
51
15.9339782
0
ARC
8
DEFAULT_255_1_234
10
4.5273637
20
156.3233286
40
0.1950618
50
16.1714718
51
43.5284424
0
ARC
8
DEFAULT_255_1_234
10
4.5350946
20
156.3310573
40
0.184134
50
43.4415429
51
83.1661404
0
ARC
8
DEFAULT_255_1_234
10
4.5216864
20
156.2573771
40
0.258926
50
82.160215
51
90.1505798
0
ARC
8
DEFAULT_255_1_234
10
4.5185291
20
156.2036865
40
0.3126255
50
89.5460705
51
102.5418777
0
ARC
8
DEFAULT_255_1_234
10
4.4942377
20
156.3067665
40
0.2067346
50
102.1739365
51
129.2061916
0
ARC
8
DEFAULT_255_1_234
10
4.4863449
20
156.3192094
40
0.1921118
50
129.7279328
51
135.7542026
0
ARC
8
DEFAULT_255_1_234
10
4.4984977
20
156.3095045
40
0.2075944
50
136.175737
51
166.3674722
0
ARC
8
DEFAULT_255_1_234
10
4.5991896
20
156.2825182
40
0.3118201
50
165.9092917
51
178.8683903
0
ARC
8
DEFAULT_255_1_234
10
4.6856757
20
156.2778179
40
0.3983935
50
178.438168
51
180.0083905
0
ARC
8
DEFAULT_255_1_234
10
4.5455359
20
156.2817231
40
0.4068601
50
163.2878735
51
180.5581814
0
ARC
8
DEFAULT_255_1_234
10
4.4653621
20
156.303784
40
0.3237344
50
133.454115
51
162.9470031
0
ARC
8
DEFAULT_255_1_234
10
4.4832162
20
156.2848
40
0.349795
50
100.7869394
51
133.4384016
0
ARC
8
DEFAULT_255_1_234
10
4.5179934
20
156.1299319
40
0.5084616
50
89.6605301
51
101.3704185
0
ARC
8
DEFAULT_255_1_234
10
4.5246273
20
156.1360496
40
0.502348
50
78.2171172
51
90.4130393
0
ARC
8
DEFAULT_255_1_234
10
4.5601351
20
156.2984637
40
0.3361092
50
55.9268222
51
78.4888551
0
ARC
8
DEFAULT_255_1_234
10
4.5797791
20
156.3323324
40
0.2970617
50
47.9292255
51
55.4054003
0
ARC
8
DEFAULT_255_1_234
10
4.5899352
20
156.3426502
40
0.2825983
50
4.3347696
51
48.0560701
0
ARC
8
DEFAULT_255_1_234
10
4.4803745
20
156.3256601
40
0.393225
50
359.925209
51
5.5967654
0
ARC
8
DEFAULT_255_1_234
10
4.5232637
20
156.3312816
40
0.3503892
50
337.8914096
51
358.9967724
0
ARC
8
DEFAULT_255_1_234
10
4.2519049
20
156.4359706
40
0.6412172
50
326.9135351
51
338.3505194
0
ARC
8
DEFAULT_255_1_234
10
3.8533353
20
156.6914284
40
1.1146189
50
319.6472867
51
327.095818
0
ARC
8
DEFAULT_255_1_234
10
3.4700356
20
157.0076
40
1.6114559
50
317.2586784
51
319.9046139
0
LINE
8
DEFAULT_255_1_234
10
5.7121127
20
156.6223211
11
5.7121127
21
155.845652
0
LINE
8
DEFAULT_255_1_234
10
5.7121127
20
155.845652
11
5.8743538
21
155.845652
0
LINE
8
DEFAULT_255_1_234
10
5.8743538
20
155.845652
11
5.8743538
21
155.7243728
0
LINE
8
DEFAULT_255_1_234
10
5.8743538
20
155.7243728
11
5.7121127
21
155.7243728
0
LINE
8
DEFAULT_255_1_234
10
5.7121127
20
155.7243728
11
5.7121127
21
155.4529
0
LINE
8
DEFAULT_255_1_234
10
5.7121127
20
155.4529
11
5.5627224
21
155.4529
0
LINE
8
DEFAULT_255_1_234
10
5.5627224
20
155.4529
11
5.5627224
21
155.7243728
0
LINE
8
DEFAULT_255_1_234
10
5.5627224
20
155.7243728
11
5.0302181
21
155.7243728
0
LINE
8
DEFAULT_255_1_234
10
5.0302181
20
155.7243728
11
5.0302181
21
155.8119187
0
LINE
8
DEFAULT_255_1_234
10
5.0302181
20
155.8119187
11
5.5538875
21
156.6223211
0
LINE
8
DEFAULT_255_1_234
10
5.5538875
20
156.6223211
11
5.7121127
21
156.6223211
0
LINE
8
DEFAULT_255_1_234
10
5.5450525
20
156.3869912
11
5.1988846
21
155.845652
0
LINE
8
DEFAULT_255_1_234
10
5.1988846
20
155.845652
11
5.5627224
21
155.845652
0
LINE
8
DEFAULT_255_1_234
10
5.5627224
20
155.845652
11
5.5627224
21
156.4191181
0
LINE
8
DEFAULT_255_1_234
10
5.5627224
20
156.4191181
11
5.5450525
21
156.3869912
0
LINE
8
DEFAULT_255_1_234
10
6.101652
20
156.6223211
11
6.434166
21
155.6577093
0
LINE
8
DEFAULT_255_1_234
10
6.434166
20
155.6577093
11
6.7682863
21
156.6223211
0
LINE
8
DEFAULT_255_1_234
10
6.7682863
20
156.6223211
11
6.9369528
21
156.6223211
0
LINE
8
DEFAULT_255_1_234
10
6.9369528
20
156.6223211
11
6.5032389
21
155.4529
0
LINE
8
DEFAULT_255_1_234
10
6.5032389
20
155.4529
11
6.3666994
21
155.4529
0
LINE
8
DEFAULT_255_1_234
10
6.3666994
20
155.4529
11
5.9337887
21
156.6223211
0
LINE
8
DEFAULT_255_1_234
10
5.9337887
20
156.6223211
11
6.101652
21
156.6223211
0
LINE
8
DEFAULT_255_1_234
10
23.1643817
20
164.0819327
11
23.1643817
21
163.8891709
0
LINE
8
DEFAULT_255_1_234
10
22.426265
20
163.8690916
11
22.426265
21
164.0674755
0
LINE
8
DEFAULT_255_1_234
10
23.0157946
20
163.8490123
11
23.0157946
21
164.0923739
0
LINE
8
DEFAULT_255_1_234
10
22.5748521
20
164.1036184
11
22.5748521
21
163.8658789
0
ARC
8
DEFAULT_255_1_234
10
21.9396707
20
163.8842805
40
1.2247208
50
353.8441951
51
0.2287902
0
ARC
8
DEFAULT_255_1_234
10
22.4036211
20
163.8324806
40
0.7578929
50
344.4934747
51
353.9765454
0
ARC
8
DEFAULT_255_1_234
10
22.7028801
20
163.7473981
40
0.4467846
50
329.2803592
51
344.7472793
0
ARC
8
DEFAULT_255_1_234
10
22.8021626
20
163.6929018
40
0.3336173
50
324.9352394
51
328.6160465
0
ARC
8
DEFAULT_255_1_234
10
22.8398734
20
163.6665427
40
0.2876076
50
280.580143
51
324.9173126
0
ARC
8
DEFAULT_255_1_234
10
22.7997527
20
163.8336099
40
0.4592847
50
269.5977311
51
281.6734359
0
ARC
8
DEFAULT_255_1_234
10
22.7925433
20
163.8216173
40
0.4472986
50
256.6228859
51
270.51044
0
ARC
8
DEFAULT_255_1_234
10
22.752341
20
163.6667877
40
0.2873874
50
215.8618325
51
257.2788573
0
ARC
8
DEFAULT_255_1_234
10
22.8544442
20
163.7352977
40
0.4102928
50
197.9693508
51
215.2623606
0
ARC
8
DEFAULT_255_1_234
10
23.1029558
20
163.8191709
40
0.6725652
50
187.8816417
51
198.2346507
0
ARC
8
DEFAULT_255_1_234
10
23.4987766
20
163.8763079
40
1.0724845
50
180.8976217
51
188.0055519
0
ARC
8
DEFAULT_255_1_234
10
23.7787954
20
163.8866777
40
1.3526448
50
180.7449369
51
181.1510016
0
ARC
8
DEFAULT_255_1_234
10
23.6210683
20
164.0723042
40
1.1948131
50
173.7675579
51
180.231553
0
ARC
8
DEFAULT_255_1_234
10
23.169283
20
164.1233666
40
0.7401564
50
164.3058563
51
173.9002247
0
ARC
8
DEFAULT_255_1_234
10
22.8780899
20
164.2072656
40
0.4371288
50
148.7922025
51
164.568378
0
ARC
8
DEFAULT_255_1_234
10
22.7829351
20
164.2603929
40
0.3282386
50
144.5883898
51
148.1176286
0
ARC
8
DEFAULT_255_1_234
10
22.7486249
20
164.2843315
40
0.2864044
50
101.6440918
51
144.514236
0
ARC
8
DEFAULT_255_1_234
10
22.7911315
20
164.1154069
40
0.4604934
50
89.5284041
51
102.5819763
0
ARC
8
DEFAULT_255_1_234
10
22.7990403
20
164.1115018
40
0.464401
50
77.0437873
51
90.5081339
0
ARC
8
DEFAULT_255_1_234
10
22.8392405
20
164.2757615
40
0.2953195
50
48.2778575
51
77.4994676
0
ARC
8
DEFAULT_255_1_234
10
22.8465036
20
164.2886746
40
0.2808655
50
36.3142134
51
47.6305865
0
ARC
8
DEFAULT_255_1_234
10
22.7596343
20
164.2301515
40
0.3855453
50
18.2931786
51
35.6769206
0
ARC
8
DEFAULT_255_1_234
10
22.5053102
20
164.1428593
40
0.654423
50
8.024666
51
18.5605216
0
ARC
8
DEFAULT_255_1_234
10
22.0890022
20
164.0813792
40
1.0752407
50
1.1274072
51
8.1718305
0
ARC
8
DEFAULT_255_1_234
10
21.7654213
20
164.0686885
40
1.3990231
50
0.5424119
51
1.3863029
0
ARC
8
DEFAULT_255_1_234
10
21.947559
20
164.0959342
40
1.0682415
50
359.8090433
51
4.9407866
0
ARC
8
DEFAULT_255_1_234
10
22.3685604
20
164.1335113
40
0.6455691
50
4.8362157
51
12.2904523
0
ARC
8
DEFAULT_255_1_234
10
22.6440719
20
164.1948965
40
0.3633074
50
12.0805627
51
23.8173984
0
ARC
8
DEFAULT_255_1_234
10
22.7614425
20
164.2445919
40
0.2358723
50
24.2871213
51
31.3935614
0
ARC
8
DEFAULT_255_1_234
10
22.8139122
20
164.2789233
40
0.1732111
50
30.7407893
51
82.4657128
0
ARC
8
DEFAULT_255_1_234
10
22.7959256
20
164.1905691
40
0.263235
50
81.1060089
51
90.2184952
0
ARC
8
DEFAULT_255_1_234
10
22.7923555
20
164.2163924
40
0.2374236
50
89.3806855
51
105.6762551
0
ARC
8
DEFAULT_255_1_234
10
22.7740186
20
164.2830567
40
0.1682847
50
105.7981136
51
149.7388061
0
ARC
8
DEFAULT_255_1_234
10
22.8804264
20
164.219095
40
0.2924306
50
149.4208916
51
163.6286378
0
ARC
8
DEFAULT_255_1_234
10
23.0895152
20
164.155325
40
0.5110213
50
163.3763315
51
172.1410975
0
ARC
8
DEFAULT_255_1_234
10
23.4195871
20
164.1080518
40
0.8444586
50
172.0259487
51
178.0703232
0
ARC
8
DEFAULT_255_1_234
10
23.722596
20
164.0936906
40
1.1477868
50
177.8631668
51
179.5044149
0
ARC
8
DEFAULT_255_1_234
10
23.6153365
20
163.8622389
40
1.0404907
50
179.7995573
51
185.2460446
0
ARC
8
DEFAULT_255_1_234
10
23.2110404
20
163.8239513
40
0.6343885
50
185.1411642
51
193.0079639
0
ARC
8
DEFAULT_255_1_234
10
22.9466877
20
163.7614641
40
0.3627568
50
192.7897626
51
205.2507664
0
ARC
8
DEFAULT_255_1_234
10
22.8420424
20
163.7147415
40
0.2481908
50
205.8005384
51
211.2537509
0
ARC
8
DEFAULT_255_1_234
10
22.7896864
20
163.679658
40
0.1852521
50
210.3789793
51
238.4008143
0
ARC
8
DEFAULT_255_1_234
10
22.7877386
20
163.6843376
40
0.1882621
50
239.6520629
51
265.9793761
0
ARC
8
DEFAULT_255_1_234
10
22.7962586
20
163.7515427
40
0.2559272
50
265.1315437
51
270.060332
0
ARC
8
DEFAULT_255_1_234
10
22.7991365
20
163.7191534
40
0.2235528
50
269.3314664
51
287.2178029
0
ARC
8
DEFAULT_255_1_234
10
22.8129217
20
163.6688279
40
0.1714108
50
287.7958004
51
329.080874
0
ARC
8
DEFAULT_255_1_234
10
22.7171674
20
163.728593
40
0.2842745
50
328.6634704
51
343.3325132
0
ARC
8
DEFAULT_255_1_234
10
22.4998694
20
163.7962863
40
0.5118644
50
343.0499468
51
351.9393422
0
ARC
8
DEFAULT_255_1_234
10
22.1531994
20
163.8473949
40
0.8622784
50
351.8069023
51
357.7959224
0
ARC
8
DEFAULT_255_1_234
10
21.829655
20
163.8641721
40
1.1862365
50
357.5871873
51
359.2677531
0
LINE
8
DEFAULT_255_1_234
10
23.4479021
20
164.5598211
11
23.7804161
21
163.5952093
0
LINE
8
DEFAULT_255_1_234
10
23.7804161
20
163.5952093
11
24.1145364
21
164.5598211
0
LINE
8
DEFAULT_255_1_234
10
24.1145364
20
164.5598211
11
24.2832029
21
164.5598211
0
LINE
8
DEFAULT_255_1_234
10
24.2832029
20
164.5598211
11
23.849489
21
163.3904
0
LINE
8
DEFAULT_255_1_234
10
23.849489
20
163.3904
11
23.7129495
21
163.3904
0
LINE
8
DEFAULT_255_1_234
10
23.7129495
20
163.3904
11
23.2800388
21
164.5598211
0
LINE
8
DEFAULT_255_1_234
10
23.2800388
20
164.5598211
11
23.4479021
21
164.5598211
0
LINE
8
DEFAULT_255_1_234
10
23.186085
20
148.1579391
11
23.186085
21
148.0318408
0
LINE
8
DEFAULT_255_1_234
10
23.186085
20
148.0318408
11
22.6953458
21
148.0318408
0
LINE
8
DEFAULT_255_1_234
10
22.6953458
20
148.0318408
11
22.6953458
21
147.5154
0
LINE
8
DEFAULT_255_1_234
10
22.6953458
20
147.5154
11
22.5411364
21
147.5154
0
LINE
8
DEFAULT_255_1_234
10
22.5411364
20
147.5154
11
22.5411364
21
148.6848211
0
LINE
8
DEFAULT_255_1_234
10
22.5411364
20
148.6848211
11
23.2655992
21
148.6848211
0
LINE
8
DEFAULT_255_1_234
10
23.2655992
20
148.6848211
11
23.2655992
21
148.5579196
0
LINE
8
DEFAULT_255_1_234
10
23.2655992
20
148.5579196
11
22.6953458
21
148.5579196
0
LINE
8
DEFAULT_255_1_234
10
22.6953458
20
148.5579196
11
22.6953458
21
148.1579391
0
LINE
8
DEFAULT_255_1_234
10
22.6953458
20
148.1579391
11
23.186085
21
148.1579391
0
LINE
8
DEFAULT_255_1_234
10
24.1113412
20
148.1820343
11
24.1113412
21
148.055936
0
LINE
8
DEFAULT_255_1_234
10
24.1113412
20
148.055936
11
23.6045385
21
148.055936
0
LINE
8
DEFAULT_255_1_234
10
23.6045385
20
148.055936
11
23.6045385
21
147.6414983
0
LINE
8
DEFAULT_255_1_234
10
23.6045385
20
147.6414983
11
24.1932649
21
147.6414983
0
LINE
8
DEFAULT_255_1_234
10
24.1932649
20
147.6414983
11
24.1932649
21
147.5154
0
LINE
8
DEFAULT_255_1_234
10
24.1932649
20
147.5154
11
23.4503292
21
147.5154
0
LINE
8
DEFAULT_255_1_234
10
23.4503292
20
147.5154
11
23.4503292
21
148.6848211
0
LINE
8
DEFAULT_255_1_234
10
23.4503292
20
148.6848211
11
24.1852332
21
148.6848211
0
LINE
8
DEFAULT_255_1_234
10
24.1852332
20
148.6848211
11
24.1852332
21
148.5579196
0
LINE
8
DEFAULT_255_1_234
10
24.1852332
20
148.5579196
11
23.6045385
21
148.5579196
0
LINE
8
DEFAULT_255_1_234
10
23.6045385
20
148.5579196
11
23.6045385
21
148.1820343
0
LINE
8
DEFAULT_255_1_234
10
23.6045385
20
148.1820343
11
24.1113412
21
148.1820343
0
LINE
8
DEFAULT_255_1_234
10
23.1643817
20
156.1444327
11
23.1643817
21
155.9516709
0
LINE
8
DEFAULT_255_1_234
10
22.426265
20
155.9315916
11
22.426265
21
156.1299755
0
LINE
8
DEFAULT_255_1_234
10
23.0157946
20
155.9115123
11
23.0157946
21
156.1548739
0
LINE
8
DEFAULT_255_1_234
10
22.5748521
20
156.1661184
11
22.5748521
21
155.9283789
0
ARC
8
DEFAULT_255_1_234
10
21.9396707
20
155.9467805
40
1.2247208
50
353.8441951
51
0.2287902
0
ARC
8
DEFAULT_255_1_234
10
22.4036211
20
155.8949806
40
0.7578929
50
344.4934747
51
353.9765454
0
ARC
8
DEFAULT_255_1_234
10
22.7028801
20
155.8098981
40
0.4467846
50
329.2803592
51
344.7472793
0
ARC
8
DEFAULT_255_1_234
10
22.8021626
20
155.7554018
40
0.3336173
50
324.9352394
51
328.6160465
0
ARC
8
DEFAULT_255_1_234
10
22.8398734
20
155.7290427
40
0.2876076
50
280.580143
51
324.9173126
0
ARC
8
DEFAULT_255_1_234
10
22.7997527
20
155.8961099
40
0.4592847
50
269.5977311
51
281.6734359
0
ARC
8
DEFAULT_255_1_234
10
22.7925433
20
155.8841173
40
0.4472986
50
256.6228859
51
270.51044
0
ARC
8
DEFAULT_255_1_234
10
22.752341
20
155.7292877
40
0.2873874
50
215.8618325
51
257.2788573
0
ARC
8
DEFAULT_255_1_234
10
22.8544442
20
155.7977977
40
0.4102928
50
197.9693508
51
215.2623606
0
ARC
8
DEFAULT_255_1_234
10
23.1029558
20
155.8816709
40
0.6725652
50
187.8816417
51
198.2346507
0
ARC
8
DEFAULT_255_1_234
10
23.4987766
20
155.9388079
40
1.0724845
50
180.8976217
51
188.0055519
0
ARC
8
DEFAULT_255_1_234
10
23.7787954
20
155.9491777
40
1.3526448
50
180.7449369
51
181.1510016
0
ARC
8
DEFAULT_255_1_234
10
23.6210683
20
156.1348042
40
1.1948131
50
173.7675579
51
180.231553
0
ARC
8
DEFAULT_255_1_234
10
23.169283
20
156.1858666
40
0.7401564
50
164.3058563
51
173.9002247
0
ARC
8
DEFAULT_255_1_234
10
22.8780899
20
156.2697656
40
0.4371288
50
148.7922025
51
164.568378
0
ARC
8
DEFAULT_255_1_234
10
22.7829351
20
156.3228929
40
0.3282386
50
144.5883898
51
148.1176286
0
ARC
8
DEFAULT_255_1_234
10
22.7486249
20
156.3468315
40
0.2864044
50
101.6440918
51
144.514236
0
ARC
8
DEFAULT_255_1_234
10
22.7911315
20
156.1779069
40
0.4604934
50
89.5284041
51
102.5819763
0
ARC
8
DEFAULT_255_1_234
10
22.7990403
20
156.1740018
40
0.464401
50
77.0437873
51
90.5081339
0
ARC
8
DEFAULT_255_1_234
10
22.8392405
20
156.3382615
40
0.2953195
50
48.2778575
51
77.4994676
0
ARC
8
DEFAULT_255_1_234
10
22.8465036
20
156.3511746
40
0.2808655
50
36.3142134
51
47.6305865
0
ARC
8
DEFAULT_255_1_234
10
22.7596343
20
156.2926515
40
0.3855453
50
18.2931786
51
35.6769206
0
ARC
8
DEFAULT_255_1_234
10
22.5053102
20
156.2053593
40
0.654423
50
8.024666
51
18.5605216
0
ARC
8
DEFAULT_255_1_234
10
22.0890022
20
156.1438792
40
1.0752407
50
1.1274072
51
8.1718305
0
ARC
8
DEFAULT_255_1_234
10
21.7654213
20
156.1311885
40
1.3990231
50
0.5424119
51
1.3863029
0
ARC
8
DEFAULT_255_1_234
10
21.947559
20
156.1584342
40
1.0682415
50
359.8090433
51
4.9407866
0
ARC
8
DEFAULT_255_1_234
10
22.3685604
20
156.1960113
40
0.6455691
50
4.8362157
51
12.2904523
0
ARC
8
DEFAULT_255_1_234
10
22.6440719
20
156.2573965
40
0.3633074
50
12.0805627
51
23.8173984
0
ARC
8
DEFAULT_255_1_234
10
22.7614425
20
156.3070919
40
0.2358723
50
24.2871213
51
31.3935614
0
ARC
8
DEFAULT_255_1_234
10
22.8139122
20
156.3414233
40
0.1732111
50
30.7407893
51
82.4657128
0
ARC
8
DEFAULT_255_1_234
10
22.7959256
20
156.2530691
40
0.263235
50
81.1060089
51
90.2184952
0
ARC
8
DEFAULT_255_1_234
10
22.7923555
20
156.2788924
40
0.2374236
50
89.3806855
51
105.6762551
0
ARC
8
DEFAULT_255_1_234
10
22.7740186
20
156.3455567
40
0.1682847
50
105.7981136
51
149.7388061
0
ARC
8
DEFAULT_255_1_234
10
22.8804264
20
156.281595
40
0.2924306
50
149.4208916
51
163.6286378
0
ARC
8
DEFAULT_255_1_234
10
23.0895152
20
156.217825
40
0.5110213
50
163.3763315
51
172.1410975
0
ARC
8
DEFAULT_255_1_234
10
23.4195871
20
156.1705518
40
0.8444586
50
172.0259487
51
178.0703232
0
ARC
8
DEFAULT_255_1_234
10
23.722596
20
156.1561906
40
1.1477868
50
177.8631668
51
179.5044149
0
ARC
8
DEFAULT_255_1_234
10
23.6153365
20
155.9247389
40
1.0404907
50
179.7995573
51
185.2460446
0
ARC
8
DEFAULT_255_1_234
10
23.2110404
20
155.8864513
40
0.6343885
50
185.1411642
51
193.0079639
0
ARC
8
DEFAULT_255_1_234
10
22.9466877
20
155.8239641
40
0.3627568
50
192.7897626
51
205.2507664
0
ARC
8
DEFAULT_255_1_234
10
22.8420424
20
155.7772415
40
0.2481908
50
205.8005384
51
211.2537509
0
ARC
8
DEFAULT_255_1_234
10
22.7896864
20
155.742158
40
0.1852521
50
210.3789793
51
238.4008143
0
ARC
8
DEFAULT_255_1_234
10
22.7877386
20
155.7468376
40
0.1882621
50
239.6520629
51
265.9793761
0
ARC
8
DEFAULT_255_1_234
10
22.7962586
20
155.8140427
40
0.2559272
50
265.1315437
51
270.060332
0
ARC
8
DEFAULT_255_1_234
10
22.7991365
20
155.7816534
40
0.2235528
50
269.3314664
51
287.2178029
0
ARC
8
DEFAULT_255_1_234
10
22.8129217
20
155.7313279
40
0.1714108
50
287.7958004
51
329.080874
0
ARC
8
DEFAULT_255_1_234
10
22.7171674
20
155.791093
40
0.2842745
50
328.6634704
51
343.3325132
0
ARC
8
DEFAULT_255_1_234
10
22.4998694
20
155.8587863
40
0.5118644
50
343.0499468
51
351.9393422
0
ARC
8
DEFAULT_255_1_234
10
22.1531994
20
155.9098949
40
0.8622784
50
351.8069023
51
357.7959224
0
ARC
8
DEFAULT_255_1_234
10
21.829655
20
155.9266721
40
1.1862365
50
357.5871873
51
359.2677531
0
LINE
8
DEFAULT_255_1_234
10
23.4479021
20
156.6223211
11
23.7804161
21
155.6577093
0
LINE
8
DEFAULT_255_1_234
10
23.7804161
20
155.6577093
11
24.1145364
21
156.6223211
0
LINE
8
DEFAULT_255_1_234
10
24.1145364
20
156.6223211
11
24.2832029
21
156.6223211
0
LINE
8
DEFAULT_255_1_234
10
24.2832029
20
156.6223211
11
23.849489
21
155.4529
0
LINE
8
DEFAULT_255_1_234
10
23.849489
20
155.4529
11
23.7129495
21
155.4529
0
LINE
8
DEFAULT_255_1_234
10
23.7129495
20
155.4529
11
23.2800388
21
156.6223211
0
LINE
8
DEFAULT_255_1_234
10
23.2800388
20
156.6223211
11
23.4479021
21
156.6223211
0
ENDSEC
0
EOF