0
SECTION
2
HEADER
9
$MEASUREMENT
70
1
0
ENDSEC
0
SECTION
2
TABLES
0
TABLE
2
LTYPE
0
LTYPE
72
65
70
64
2
CONTINUOUS
3
______
73
0
40
0
0
ENDTAB
0
TABLE
2
LAYER
0
LAYER
2
DEFAULT_255_2_778
70
0
62
255
6
CONTINUOUS
0
LAYER
2
DEFAULT_255_1_388
70
0
62
255
6
CONTINUOUS
0
LAYER
2
DEFAULT_255_2_778_1
70
0
62
255
6
CONTINUOUS
0
ENDTAB
0
ENDSEC
0
SECTION
2
ENTITIES
0
ARC
8
DEFAULT_255_2_778
10
3.5700693
20
91.6802028
40
0.7914215
50
129.1312896
51
180.1450914
0
ARC
8
DEFAULT_255_2_778
10
3.5703345
20
91.6806899
40
0.7912112
50
89.854026
51
129.1684493
0
ARC
8
DEFAULT_255_2_778
10
25.7993937
20
91.6803765
40
0.7915249
50
39.4792447
51
90.147911
0
ARC
8
DEFAULT_255_2_778
10
25.7999935
20
91.6802231
40
0.7911595
50
359.8533901
51
39.5154338
0
ARC
8
DEFAULT_255_2_778
10
25.7996693
20
-1.9863495
40
0.7914836
50
309.4761667
51
0.1482649
0
ARC
8
DEFAULT_255_2_778
10
25.799398
20
-1.9867805
40
0.7913235
50
269.8517415
51
309.511178
0
ARC
8
DEFAULT_255_2_778
10
3.570342
20
-1.9867224
40
0.7913815
50
219.1282118
51
270.1454017
0
ARC
8
DEFAULT_255_2_778
10
3.5700247
20
-1.9863399
40
0.7913769
50
179.8524075
51
219.1641908
0
LINE
8
DEFAULT_255_2_778
10
3.5723503
20
92.4718987
11
25.7973503
21
92.4718987
0
LINE
8
DEFAULT_255_2_778
10
26.5911503
20
91.6781987
11
26.5911503
21
-1.9843013
0
LINE
8
DEFAULT_255_2_778
10
25.7973503
20
-2.7781013
11
3.5723503
21
-2.7781013
0
LINE
8
DEFAULT_255_2_778
10
2.7786503
20
-1.9843013
11
2.7786503
21
91.6781987
0
LINE
8
DEFAULT_255_1_388
10
10.8104359
20
0.1101585
11
10.8104359
21
-0.0317011
0
LINE
8
DEFAULT_255_1_388
10
10.8104359
20
-0.0317011
11
10.2402868
21
-0.0317011
0
LINE
8
DEFAULT_255_1_388
10
10.2402868
20
-0.0317011
11
10.2402868
21
-0.4979404
0
LINE
8
DEFAULT_255_1_388
10
10.2402868
20
-0.4979404
11
10.9025995
21
-0.4979404
0
LINE
8
DEFAULT_255_1_388
10
10.9025995
20
-0.4979404
11
10.9025995
21
-0.6398
0
LINE
8
DEFAULT_255_1_388
10
10.9025995
20
-0.6398
11
10.0668024
21
-0.6398
0
LINE
8
DEFAULT_255_1_388
10
10.0668024
20
-0.6398
11
10.0668024
21
0.6757898
0
LINE
8
DEFAULT_255_1_388
10
10.0668024
20
0.6757898
11
10.8935639
21
0.6757898
0
LINE
8
DEFAULT_255_1_388
10
10.8935639
20
0.6757898
11
10.8935639
21
0.5330267
0
LINE
8
DEFAULT_255_1_388
10
10.8935639
20
0.5330267
11
10.2402868
21
0.5330267
0
LINE
8
DEFAULT_255_1_388
10
10.2402868
20
0.5330267
11
10.2402868
21
0.1101585
0
LINE
8
DEFAULT_255_1_388
10
10.2402868
20
0.1101585
11
10.8104359
21
0.1101585
0
LINE
8
DEFAULT_255_1_388
10
12.12964
20
0.6757898
11
12.12964
21
-0.6398
0
LINE
8
DEFAULT_255_1_388
10
12.12964
20
-0.6398
11
11.9552521
21
-0.6398
0
LINE
8
DEFAULT_255_1_388
10
11.9552521
20
-0.6398
11
11.9552521
21
-0.0317011
0
LINE
8
DEFAULT_255_1_388
10
11.9552521
20
-0.0317011
11
11.2920358
21
-0.0317011
0
LINE
8
DEFAULT_255_1_388
10
11.2920358
20
-0.0317011
11
11.2920358
21
-0.6398
0
LINE
8
DEFAULT_255_1_388
10
11.2920358
20
-0.6398
11
11.1185514
21
-0.6398
0
LINE
8
DEFAULT_255_1_388
10
11.1185514
20
-0.6398
11
11.1185514
21
0.6757898
0
LINE
8
DEFAULT_255_1_388
10
11.1185514
20
0.6757898
11
11.2920358
21
0.6757898
0
LINE
8
DEFAULT_255_1_388
10
11.2920358
20
0.6757898
11
11.2920358
21
0.1101585
0
LINE
8
DEFAULT_255_1_388
10
11.2920358
20
0.1101585
11
11.9552521
21
0.1101585
0
LINE
8
DEFAULT_255_1_388
10
11.9552521
20
0.1101585
11
11.9552521
21
0.6757898
0
LINE
8
DEFAULT_255_1_388
10
11.9552521
20
0.6757898
11
12.12964
21
0.6757898
0
LINE
8
DEFAULT_255_1_388
10
12.7594245
20
-0.0127263
11
12.7594245
21
-0.1491645
0
LINE
8
DEFAULT_255_1_388
10
12.7594245
20
-0.1491645
11
12.318485
21
-0.1491645
0
LINE
8
DEFAULT_255_1_388
10
12.318485
20
-0.1491645
11
12.318485
21
-0.0127263
0
LINE
8
DEFAULT_255_1_388
10
12.318485
20
-0.0127263
11
12.7594245
21
-0.0127263
0
LINE
8
DEFAULT_255_1_388
10
13.3124059
20
-0.6398
11
12.9482694
21
-0.6398
0
LINE
8
DEFAULT_255_1_388
10
12.9482694
20
-0.6398
11
12.9482694
21
0.6757898
0
LINE
8
DEFAULT_255_1_388
10
12.9482694
20
0.6757898
11
13.3196344
21
0.6757898
0
LINE
8
DEFAULT_255_1_388
10
13.8997228
20
0.0622696
11
13.8997228
21
-0.0217619
0
LINE
8
DEFAULT_255_1_388
10
13.3241522
20
0.5330267
11
13.1217538
21
0.5330267
0
LINE
8
DEFAULT_255_1_388
10
13.1217538
20
0.5330267
11
13.1217538
21
-0.4979404
0
LINE
8
DEFAULT_255_1_388
10
13.1217538
20
-0.4979404
11
13.3042738
21
-0.4979404
0
LINE
8
DEFAULT_255_1_388
10
13.7280456
20
-0.0181477
11
13.7280456
21
0.0586553
0
ARC
8
DEFAULT_255_1_388
10
13.3240139
20
0.0159436
40
0.6598608
50
75.4100343
51
90.3802731
0
ARC
8
DEFAULT_255_1_388
10
13.3498385
20
0.1235691
40
0.5492049
50
60.1455157
51
75.1889627
0
ARC
8
DEFAULT_255_1_388
10
13.3676976
20
0.1546914
40
0.5133226
50
26.525419
51
60.1451222
0
ARC
8
DEFAULT_255_1_388
10
13.2416762
20
0.0878642
40
0.6559324
50
7.4029944
51
26.832209
0
ARC
8
DEFAULT_255_1_388
10
13.062316
20
0.0599229
40
0.8374103
50
0.1605597
51
7.7176135
0
ARC
8
DEFAULT_255_1_388
10
13.080756
20
-0.0260679
40
0.8189782
50
348.7289744
51
0.30125
0
ARC
8
DEFAULT_255_1_388
10
13.2671024
20
-0.0630844
40
0.628991
50
333.0706936
51
348.7181455
0
ARC
8
DEFAULT_255_1_388
10
13.3758652
20
-0.1221551
40
0.5052808
50
299.2531435
51
333.4571133
0
ARC
8
DEFAULT_255_1_388
10
13.3352683
20
-0.0450371
40
0.5924066
50
278.1072193
51
299.0340218
0
ARC
8
DEFAULT_255_1_388
10
13.3064731
20
0.1245979
40
0.7644209
50
270.4446841
51
278.4508355
0
ARC
8
DEFAULT_255_1_388
10
13.3088215
20
0.02003
40
0.5179903
50
269.4969684
51
284.0204874
0
ARC
8
DEFAULT_255_1_388
10
13.3487933
20
-0.1335585
40
0.3592968
50
283.7699076
51
318.1557121
0
ARC
8
DEFAULT_255_1_388
10
13.3108479
20
-0.1051601
40
0.4065308
50
318.7417595
51
343.687252
0
ARC
8
DEFAULT_255_1_388
10
13.1079057
20
-0.0417725
40
0.6191194
50
343.3324891
51
355.8548594
0
ARC
8
DEFAULT_255_1_388
10
12.8718095
20
-0.0193281
40
0.856237
50
355.4988754
51
0.0789913
0
ARC
8
DEFAULT_255_1_388
10
12.9598894
20
0.063408
40
0.7681709
50
359.6455047
51
9.8607559
0
ARC
8
DEFAULT_255_1_388
10
13.2254617
20
0.1113664
40
0.498312
50
9.6573037
51
26.1931522
0
ARC
8
DEFAULT_255_1_388
10
13.3298692
20
0.1598587
40
0.3832303
50
26.5777895
51
40.1533752
0
ARC
8
DEFAULT_255_1_388
10
13.3586357
20
0.182302
40
0.3467742
50
40.3839958
51
80.1430923
0
ARC
8
DEFAULT_255_1_388
10
13.3218613
20
0.0192486
40
0.5137832
50
79.2153636
51
89.7445174
0
LINE
8
DEFAULT_255_1_388
10
14.7445556
20
0.6766934
11
14.7743732
21
0.6766934
0
LINE
8
DEFAULT_255_1_388
10
14.7743732
20
0.6766934
11
14.7743732
21
0.5348338
0
LINE
8
DEFAULT_255_1_388
10
14.7743732
20
0.5348338
11
14.743652
21
0.5348338
0
LINE
8
DEFAULT_255_1_388
10
14.1283246
20
-0.1392253
11
14.1283246
21
-0.0750722
0
LINE
8
DEFAULT_255_1_388
10
14.2963876
20
-0.0967578
11
14.2963876
21
-0.1582001
0
ARC
8
DEFAULT_255_1_388
10
14.7495412
20
-0.0274174
40
0.562282
50
90.6001079
51
104.5146616
0
ARC
8
DEFAULT_255_1_388
10
14.7058371
20
0.13511
40
0.3939917
50
104.2855758
51
133.8630124
0
ARC
8
DEFAULT_255_1_388
10
14.7242624
20
0.1229243
40
0.4155734
50
134.5304124
51
161.6210222
0
ARC
8
DEFAULT_255_1_388
10
14.9102556
20
0.0573421
40
0.6127682
50
161.2850533
51
174.2074364
0
ARC
8
DEFAULT_255_1_388
10
15.0692123
20
0.0354437
40
0.7731446
50
173.7817938
51
174.9251711
0
ARC
8
DEFAULT_255_1_388
10
14.5566316
20
-0.120073
40
0.3412588
50
95.8332067
51
138.995412
0
ARC
8
DEFAULT_255_1_388
10
14.5817597
20
-0.2639305
40
0.4870358
50
89.8755506
51
97.0540979
0
ARC
8
DEFAULT_255_1_388
10
14.5870986
20
-0.1699159
40
0.3930432
50
71.6407016
51
90.6240821
0
ARC
8
DEFAULT_255_1_388
10
14.6040379
20
-0.1075567
40
0.3285421
50
39.6368051
51
71.0190743
0
ARC
8
DEFAULT_255_1_388
10
14.5324287
20
-0.1694414
40
0.4231706
50
10.6588054
51
39.9044509
0
ARC
8
DEFAULT_255_1_388
10
14.3582832
20
-0.2072777
40
0.60133
50
359.6827842
51
11.1326896
0
ARC
8
DEFAULT_255_1_388
10
14.3538168
20
-0.2152285
40
0.6058047
50
347.2485908
51
0.4371098
0
ARC
8
DEFAULT_255_1_388
10
14.5413954
20
-0.2603621
40
0.4128987
50
318.1408565
51
347.6118497
0
ARC
8
DEFAULT_255_1_388
10
14.577955
20
-0.2904097
40
0.3656244
50
275.6342406
51
317.824739
0
ARC
8
DEFAULT_255_1_388
10
14.5531071
20
-0.1442173
40
0.513655
50
269.8872513
51
276.7916069
0
ARC
8
DEFAULT_255_1_388
10
14.5469264
20
-0.2595819
40
0.398323
50
246.9139443
51
270.7436787
0
ARC
8
DEFAULT_255_1_388
10
14.547646
20
-0.2755956
40
0.3839368
50
218.1665534
51
245.8780431
0
ARC
8
DEFAULT_255_1_388
10
14.6465832
20
-0.1928097
40
0.5128958
50
191.4115343
51
218.6077624
0
ARC
8
DEFAULT_255_1_388
10
14.8646148
20
-0.1439223
40
0.7363054
50
179.6344971
51
191.7836758
0
ARC
8
DEFAULT_255_1_388
10
15.4926023
20
-0.0675505
40
1.3642984
50
171.4523743
51
180.3158856
0
ARC
8
DEFAULT_255_1_388
10
14.998175
20
0.0093895
40
0.8639311
50
157.9802296
51
171.6246761
0
ARC
8
DEFAULT_255_1_388
10
14.74911
20
0.1087038
40
0.5958004
50
141.4299236
51
157.8541251
0
ARC
8
DEFAULT_255_1_388
10
14.6769184
20
0.1597746
40
0.5075416
50
102.871586
51
140.8564533
0
ARC
8
DEFAULT_255_1_388
10
14.7497736
20
-0.1147057
40
0.7914163
50
90.377773
51
103.5868422
0
ARC
8
DEFAULT_255_1_388
10
14.5542258
20
-0.1827457
40
0.2667015
50
89.8751238
51
126.2072139
0
ARC
8
DEFAULT_255_1_388
10
14.5593729
20
-0.2001153
40
0.2838229
50
124.9742447
51
144.8960197
0
ARC
8
DEFAULT_255_1_388
10
14.5395974
20
-0.1840019
40
0.2583845
50
145.2974778
51
160.2660922
0
ARC
8
DEFAULT_255_1_388
10
14.8852462
20
-0.1617849
40
0.5888695
50
179.6512124
51
190.285571
0
ARC
8
DEFAULT_255_1_388
10
14.6946942
20
-0.1977032
40
0.3949683
50
190.0944895
51
207.5099647
0
ARC
8
DEFAULT_255_1_388
10
14.6310523
20
-0.2279823
40
0.3245464
50
207.9585471
51
216.325377
0
ARC
8
DEFAULT_255_1_388
10
14.592816
20
-0.2594288
40
0.2751259
50
215.7661336
51
232.5457193
0
ARC
8
DEFAULT_255_1_388
10
14.5497276
20
-0.3141727
40
0.2054668
50
232.8005815
51
270.6605497
0
ARC
8
DEFAULT_255_1_388
10
14.5548701
20
-0.2732147
40
0.2464268
50
269.3550767
51
288.474612
0
ARC
8
DEFAULT_255_1_388
10
14.5653208
20
-0.3125279
40
0.2058436
50
289.1831976
51
322.9685307
0
ARC
8
DEFAULT_255_1_388
10
14.4965309
20
-0.2582721
40
0.2934408
50
322.6007085
51
346.5183319
0
ARC
8
DEFAULT_255_1_388
10
14.3663065
20
-0.2250566
40
0.4278249
50
346.2584622
51
358.7739592
0
ARC
8
DEFAULT_255_1_388
10
14.2511641
20
-0.2188171
40
0.5430876
50
358.3757628
51
0.0082477
0
ARC
8
DEFAULT_255_1_388
10
14.3368459
20
-0.2157144
40
0.4574157
50
359.6211417
51
11.28403
0
ARC
8
DEFAULT_255_1_388
10
14.4805065
20
-0.1857465
40
0.3106708
50
11.0483152
51
31.8145585
0
ARC
8
DEFAULT_255_1_388
10
14.5152771
20
-0.1668955
40
0.2711963
50
32.3028554
51
38.0820598
0
ARC
8
DEFAULT_255_1_388
10
14.5626003
20
-0.1240283
40
0.2075566
50
36.8249851
51
85.741667
0
ARC
8
DEFAULT_255_1_388
10
14.5550416
20
-0.1803935
40
0.2643487
50
85.0150021
51
90.050843
0
LINE
8
DEFAULT_255_1_388
10
15.9444892
20
0.1101585
11
15.9444892
21
-0.0317011
0
LINE
8
DEFAULT_255_1_388
10
15.9444892
20
-0.0317011
11
15.37434
21
-0.0317011
0
LINE
8
DEFAULT_255_1_388
10
15.37434
20
-0.0317011
11
15.37434
21
-0.4979404
0
LINE
8
DEFAULT_255_1_388
10
15.37434
20
-0.4979404
11
16.0366527
21
-0.4979404
0
LINE
8
DEFAULT_255_1_388
10
16.0366527
20
-0.4979404
11
16.0366527
21
-0.6398
0
LINE
8
DEFAULT_255_1_388
10
16.0366527
20
-0.6398
11
15.2008556
21
-0.6398
0
LINE
8
DEFAULT_255_1_388
10
15.2008556
20
-0.6398
11
15.2008556
21
0.6757898
0
LINE
8
DEFAULT_255_1_388
10
15.2008556
20
0.6757898
11
16.0276171
21
0.6757898
0
LINE
8
DEFAULT_255_1_388
10
16.0276171
20
0.6757898
11
16.0276171
21
0.5330267
0
LINE
8
DEFAULT_255_1_388
10
16.0276171
20
0.5330267
11
15.37434
21
0.5330267
0
LINE
8
DEFAULT_255_1_388
10
15.37434
20
0.5330267
11
15.37434
21
0.1101585
0
LINE
8
DEFAULT_255_1_388
10
15.37434
20
0.1101585
11
15.9444892
21
0.1101585
0
LINE
8
DEFAULT_255_1_388
10
17.1796618
20
0.6757898
11
17.1796618
21
0.5330267
0
LINE
8
DEFAULT_255_1_388
10
17.1796618
20
0.5330267
11
16.7567936
21
0.5330267
0
LINE
8
DEFAULT_255_1_388
10
16.7567936
20
0.5330267
11
16.7567936
21
-0.6398
0
LINE
8
DEFAULT_255_1_388
10
16.7567936
20
-0.6398
11
16.5842128
21
-0.6398
0
LINE
8
DEFAULT_255_1_388
10
16.5842128
20
-0.6398
11
16.5842128
21
0.5330267
0
LINE
8
DEFAULT_255_1_388
10
16.5842128
20
0.5330267
11
16.1622482
21
0.5330267
0
LINE
8
DEFAULT_255_1_388
10
16.1622482
20
0.5330267
11
16.1622482
21
0.6757898
0
LINE
8
DEFAULT_255_1_388
10
16.1622482
20
0.6757898
11
17.1796618
21
0.6757898
0
LINE
8
DEFAULT_255_1_388
10
18.1428615
20
-0.2223532
11
18.3172494
21
-0.2223532
0
LINE
8
DEFAULT_255_1_388
10
17.3043537
20
-0.0434475
11
17.3043537
21
0.0830516
0
LINE
8
DEFAULT_255_1_388
10
18.3172494
20
0.2529217
11
18.1428615
21
0.2529217
0
LINE
8
DEFAULT_255_1_388
10
17.4787416
20
0.0785337
11
17.4787416
21
-0.0488688
0
ARC
8
DEFAULT_255_1_388
10
17.7006728
20
-0.1551671
40
0.6202263
50
340.1774904
51
353.7812217
0
ARC
8
DEFAULT_255_1_388
10
17.8774581
20
-0.2210107
40
0.4315926
50
311.4560052
51
340.4420756
0
ARC
8
DEFAULT_255_1_388
10
17.8737121
20
-0.2085335
40
0.4434573
50
282.4332229
51
310.7514507
0
ARC
8
DEFAULT_255_1_388
10
17.8242938
20
-0.0043297
40
0.6535262
50
269.9358869
51
282.8096729
0
ARC
8
DEFAULT_255_1_388
10
17.8184878
20
0.1469329
40
0.8048043
50
269.9995752
51
270.3612856
0
ARC
8
DEFAULT_255_1_388
10
17.8125368
20
-0.1329219
40
0.5249831
50
250.7885263
51
270.6488451
0
ARC
8
DEFAULT_255_1_388
10
17.7936193
20
-0.2046147
40
0.4510942
50
219.3628377
51
250.0611024
0
ARC
8
DEFAULT_255_1_388
10
17.8869067
20
-0.1253347
40
0.5735046
50
193.5480293
51
219.5755675
0
ARC
8
DEFAULT_255_1_388
10
18.1537276
20
-0.056048
40
0.849146
50
181.1220183
51
193.8754971
0
ARC
8
DEFAULT_255_1_388
10
18.3860509
20
-0.0436086
40
1.0816971
50
179.9914644
51
181.5398227
0
ARC
8
DEFAULT_255_1_388
10
18.178382
20
0.0872586
40
0.8740384
50
169.5837606
51
180.275782
0
ARC
8
DEFAULT_255_1_388
10
17.9717168
20
0.1254439
40
0.6638751
50
155.0367033
51
169.6002779
0
ARC
8
DEFAULT_255_1_388
10
17.8439626
20
0.1870336
40
0.5220662
50
136.7831557
51
155.2472983
0
ARC
8
DEFAULT_255_1_388
10
17.8001417
20
0.2242577
40
0.4646502
50
121.7633063
51
136.4281161
0
ARC
8
DEFAULT_255_1_388
10
17.8153256
20
0.1962049
40
0.4964979
50
95.6460018
51
121.5489589
0
ARC
8
DEFAULT_255_1_388
10
17.8330231
20
0.0714704
40
0.6223912
50
89.9245727
51
96.1375919
0
ARC
8
DEFAULT_255_1_388
10
17.8386936
20
0.0848721
40
0.6090084
50
76.6779212
51
90.456405
0
ARC
8
DEFAULT_255_1_388
10
17.8829749
20
0.263806
40
0.42469
50
47.4858803
51
76.9287069
0
ARC
8
DEFAULT_255_1_388
10
17.8664363
20
0.2525623
40
0.4441778
50
16.5424081
51
46.8934505
0
ARC
8
DEFAULT_255_1_388
10
17.6855412
20
0.1931265
40
0.6345318
50
5.4072971
51
17.0363711
0
ARC
8
DEFAULT_255_1_388
10
17.5237138
20
0.1671304
40
0.6250632
50
7.8888693
51
15.9242022
0
ARC
8
DEFAULT_255_1_388
10
17.7472123
20
0.2320309
40
0.3923364
50
15.7650676
51
27.9410069
0
ARC
8
DEFAULT_255_1_388
10
17.8714292
20
0.2985317
40
0.2514401
50
27.8167196
51
46.4007942
0
ARC
8
DEFAULT_255_1_388
10
17.8770134
20
0.2978882
40
0.2480958
50
47.4372362
51
75.0695672
0
ARC
8
DEFAULT_255_1_388
10
17.842297
20
0.1770277
40
0.3738281
50
74.7009379
51
87.8124314
0
ARC
8
DEFAULT_255_1_388
10
17.8340587
20
0.0586659
40
0.4924321
50
87.3802571
51
90.0251599
0
ARC
8
DEFAULT_255_1_388
10
17.8297234
20
0.1906997
40
0.3604218
50
89.3451886
51
108.5744412
0
ARC
8
DEFAULT_255_1_388
10
17.8143226
20
0.2484836
40
0.3007661
50
109.2998307
51
143.3037387
0
ARC
8
DEFAULT_255_1_388
10
17.9000516
20
0.1825584
40
0.4089031
50
143.075267
51
163.1918576
0
ARC
8
DEFAULT_255_1_388
10
18.119635
20
0.1132652
40
0.6391492
50
162.9375929
51
174.6208776
0
ARC
8
DEFAULT_255_1_388
10
18.4150732
20
0.0808711
40
0.9363344
50
174.342123
51
180.1430283
0
ARC
8
DEFAULT_255_1_388
10
18.3103273
20
-0.0534883
40
0.8315986
50
179.6817261
51
189.150555
0
ARC
8
DEFAULT_255_1_388
10
18.0290022
20
-0.1003441
40
0.5464044
50
188.9911061
51
203.5772363
0
ARC
8
DEFAULT_255_1_388
10
17.9075314
20
-0.1507461
40
0.4149206
50
203.9075402
51
215.1312435
0
ARC
8
DEFAULT_255_1_388
10
17.8037112
20
-0.2312093
40
0.2837747
50
213.9071511
51
263.8848919
0
ARC
8
DEFAULT_255_1_388
10
17.8178105
20
-0.1429481
40
0.3730641
50
263.1757928
51
270.1031044
0
ARC
8
DEFAULT_255_1_388
10
17.8214185
20
-0.0026489
40
0.5133712
50
269.6722503
51
279.0606936
0
ARC
8
DEFAULT_255_1_388
10
17.851434
20
-0.184085
40
0.3294739
50
278.8749101
51
293.6349581
0
ARC
8
DEFAULT_255_1_388
10
17.8874544
20
-0.2686749
40
0.2375405
50
293.8553806
51
310.0518171
0
ARC
8
DEFAULT_255_1_388
10
17.8880052
20
-0.2756979
40
0.2318463
50
311.0644687
51
332.0111037
0
ARC
8
DEFAULT_255_1_388
10
17.7538726
20
-0.2017298
40
0.3850112
50
331.6586806
51
343.2877423
0
ARC
8
DEFAULT_255_1_388
10
17.5218191
20
-0.1304194
40
0.6277712
50
343.1446576
51
351.0103568
0
ARC
8
DEFAULT_255_1_388
10
17.3585514
20
-0.1004127
40
0.7937327
50
350.71248
51
351.1626997
0
LINE
8
DEFAULT_255_2_778
10
20.8173981
20
91.0770229
11
21.4603981
21
91.0770229
0
LINE
8
DEFAULT_255_2_778
10
19.5074981
20
91.0770229
11
19.5074981
21
90.0726229
0
LINE
8
DEFAULT_255_2_778
10
19.5074981
20
90.0726229
11
20.8173981
21
90.0726229
0
LINE
8
DEFAULT_255_2_778
10
20.8173981
20
90.0726229
11
20.8173981
21
91.0770229
0
LINE
8
DEFAULT_255_2_778
10
21.4603981
20
91.0770229
11
21.4603981
21
88.5598229
0
LINE
8
DEFAULT_255_2_778
10
21.4603981
20
88.5598229
11
20.8173981
21
88.5598229
0
LINE
8
DEFAULT_255_2_778
10
20.8173981
20
88.5598229
11
20.8173981
21
89.6697229
0
LINE
8
DEFAULT_255_2_778
10
20.8173981
20
89.6697229
11
19.5074981
21
89.6697229
0
LINE
8
DEFAULT_255_2_778
10
19.5074981
20
89.6697229
11
19.5074981
21
88.5621229
0
LINE
8
DEFAULT_255_2_778
10
19.5074981
20
88.5621229
11
18.8644981
21
88.5621229
0
LINE
8
DEFAULT_255_2_778
10
18.8644981
20
88.5621229
11
18.8644981
21
91.0770229
0
LINE
8
DEFAULT_255_2_778
10
18.8644981
20
91.0770229
11
19.5074981
21
91.0770229
0
LINE
8
DEFAULT_255_2_778
10
13.3725981
20
91.0770229
11
13.3725981
21
90.6489229
0
LINE
8
DEFAULT_255_2_778
10
13.3725981
20
90.6489229
11
12.3798981
21
90.6489229
0
LINE
8
DEFAULT_255_2_778
10
12.3798981
20
90.6489229
11
12.3798981
21
88.5598229
0
LINE
8
DEFAULT_255_2_778
10
12.3798981
20
88.5598229
11
11.7286981
21
88.5598229
0
LINE
8
DEFAULT_255_2_778
10
11.7286981
20
88.5598229
11
11.7286981
21
90.6489229
0
LINE
8
DEFAULT_255_2_778
10
11.7286981
20
90.6489229
11
10.7441981
21
90.6489229
0
LINE
8
DEFAULT_255_2_778
10
10.7441981
20
90.6489229
11
10.7441981
21
91.0770229
0
LINE
8
DEFAULT_255_2_778
10
10.7441981
20
91.0770229
11
13.3722981
21
91.0770229
0
LINE
8
DEFAULT_255_2_778
10
15.8865981
20
88.5598229
11
15.1624981
21
88.5598229
0
LINE
8
DEFAULT_255_2_778
10
15.1624981
20
88.5598229
11
14.9507981
21
89.1053229
0
LINE
8
DEFAULT_255_2_778
10
14.9507981
20
89.1053229
11
13.7381981
21
89.1053229
0
LINE
8
DEFAULT_255_2_778
10
13.7381981
20
89.1053229
11
13.5265981
21
88.5598229
0
LINE
8
DEFAULT_255_2_778
10
13.5265981
20
88.5598229
11
12.8108981
21
88.5598229
0
LINE
8
DEFAULT_255_2_778
10
12.8108981
20
88.5598229
11
13.9498981
21
91.0770229
0
LINE
8
DEFAULT_255_2_778
10
13.9498981
20
91.0770229
11
14.7390981
21
91.0770229
0
LINE
8
DEFAULT_255_2_778
10
14.7390981
20
91.0770229
11
15.8865981
21
88.5598229
0
LINE
8
DEFAULT_255_2_778
10
14.3488981
20
90.6489229
11
13.8932981
21
89.5078229
0
LINE
8
DEFAULT_255_2_778
10
13.8932981
20
89.5078229
11
14.7965981
21
89.5078229
0
LINE
8
DEFAULT_255_2_778
10
14.7965981
20
89.5078229
11
14.3488981
21
90.6489229
0
LINE
8
DEFAULT_255_2_778
10
21.9714981
20
88.5598229
11
21.9714981
21
91.0770229
0
LINE
8
DEFAULT_255_2_778
10
21.9714981
20
91.0770229
11
22.6223981
21
91.0770229
0
LINE
8
DEFAULT_255_2_778
10
22.6223981
20
91.0770229
11
22.6223981
21
88.5598229
0
LINE
8
DEFAULT_255_2_778
10
22.6223981
20
88.5598229
11
21.9714981
21
88.5598229
0
ARC
8
DEFAULT_255_2_778
10
17.4928634
20
89.8068794
40
1.7203324
50
180.3751097
51
198.5875868
0
ARC
8
DEFAULT_255_2_778
10
17.3530966
20
89.8276502
40
1.5808533
50
158.0492629
51
181.1610924
0
ARC
8
DEFAULT_255_2_778
10
16.9861786
20
89.9509311
40
1.1946691
50
150.7860107
51
156.955066
0
ARC
8
DEFAULT_255_2_778
10
16.8982418
20
89.9932339
40
1.0972872
50
111.4504449
51
150.4728397
0
ARC
8
DEFAULT_255_2_778
10
17.220305
20
89.1353999
40
2.0135283
50
90.194553
51
111.0534438
0
ARC
8
DEFAULT_255_2_778
10
17.2087739
20
89.16075
40
1.9881721
50
65.6958049
51
89.8647264
0
ARC
8
DEFAULT_255_2_778
10
17.6787121
20
90.2221284
40
0.8274868
50
11.2255456
51
65.1035005
0
ARC
8
DEFAULT_255_2_778
10
-0.0805551
20
88.1126931
40
18.0460455
50
6.7184719
51
6.747037
0
ARC
8
DEFAULT_255_2_778
10
17.1626023
20
90.1833943
40
0.6797124
50
4.1726408
51
20.1118961
0
ARC
8
DEFAULT_255_2_778
10
17.3614062
20
90.2680115
40
0.4640677
50
18.7415785
51
72.5888136
0
ARC
8
DEFAULT_255_2_778
10
17.2025059
20
89.6732047
40
1.0794909
50
73.9881848
51
89.3066954
0
ARC
8
DEFAULT_255_2_778
10
17.1983401
20
89.961535
40
0.7912692
50
88.7524372
51
112.3015844
0
ARC
8
DEFAULT_255_2_778
10
17.0838187
20
90.1549903
40
0.5697558
50
109.0272801
51
162.6899679
0
ARC
8
DEFAULT_255_2_778
10
18.0472234
20
89.796817
40
1.5970559
50
160.7057136
51
180.0040245
0
ARC
8
DEFAULT_255_2_778
10
17.4360501
20
89.7964828
40
0.9858824
50
179.9870956
51
180.0387134
0
ARC
8
DEFAULT_255_2_778
10
17.9749034
20
89.8003141
40
1.5247421
50
180.1690042
51
196.803869
0
ARC
8
DEFAULT_255_2_778
10
17.0900469
20
89.5052436
40
0.5929648
50
194.2267498
51
247.7026219
0
ARC
8
DEFAULT_255_2_778
10
17.2253599
20
89.8911028
40
1.0015362
50
248.915808
51
269.4283674
0
ARC
8
DEFAULT_255_2_778
10
17.2167111
20
89.4624228
40
0.5728078
50
269.8656425
51
270.0448116
0
ARC
8
DEFAULT_255_2_778
10
17.2177548
20
89.793057
40
0.9034423
50
269.9622192
51
289.2672362
0
ARC
8
DEFAULT_255_2_778
10
17.3566218
20
89.4006187
40
0.4871646
50
289.079723
51
335.6836304
0
ARC
8
DEFAULT_255_2_778
10
17.1094676
20
89.4640273
40
0.7398116
50
339.0923962
51
0.0324791
0
ARC
8
DEFAULT_255_2_778
10
17.1096199
20
89.4644463
40
0.7396591
50
0.0000282
51
0.3153016
0
ARC
8
DEFAULT_255_2_778
10
17.7379321
20
89.3937467
40
0.7766289
50
293.0868009
51
348.0633563
0
ARC
8
DEFAULT_255_2_778
10
17.2274897
20
90.475376
40
1.972313
50
269.5781363
51
294.4066005
0
ARC
8
DEFAULT_255_2_778
10
17.2068626
20
90.6778305
40
2.1747224
50
252.5126234
51
270.1608511
0
ARC
8
DEFAULT_255_2_778
10
16.8655784
20
89.6262887
40
1.0692678
50
200.1518087
51
253.0231459
0
LINE
8
DEFAULT_255_2_778
10
7.4003679
20
91.0769166
11
7.4003679
21
90.0726166
0
LINE
8
DEFAULT_255_2_778
10
7.4003679
20
90.0726166
11
8.7020679
21
90.0726166
0
LINE
8
DEFAULT_255_2_778
10
8.7020679
20
90.0726166
11
8.7020679
21
91.0769166
0
LINE
8
DEFAULT_255_2_778
10
8.7020679
20
91.0769166
11
9.3508679
21
91.0769166
0
LINE
8
DEFAULT_255_2_778
10
9.3508679
20
91.0769166
11
9.3508679
21
88.5597166
0
LINE
8
DEFAULT_255_2_778
10
9.3508679
20
88.5597166
11
8.6999679
21
88.5597166
0
LINE
8
DEFAULT_255_2_778
10
8.6999679
20
88.5597166
11
8.6999679
21
89.6699166
0
LINE
8
DEFAULT_255_2_778
10
8.6999679
20
89.6699166
11
7.3982679
21
89.6699166
0
LINE
8
DEFAULT_255_2_778
10
7.3982679
20
89.6699166
11
7.3982679
21
88.5623166
0
LINE
8
DEFAULT_255_2_778
10
7.3982679
20
88.5623166
11
6.7473679
21
88.5623166
0
LINE
8
DEFAULT_255_2_778
10
6.7473679
20
88.5623166
11
6.7473679
21
91.0769166
0
LINE
8
DEFAULT_255_2_778
10
6.7473679
20
91.0769166
11
7.3982679
21
91.0769166
0
LINE
8
DEFAULT_255_2_778
10
9.8654679
20
88.5597166
11
9.8654679
21
91.0769166
0
LINE
8
DEFAULT_255_2_778
10
9.8654679
20
91.0769166
11
10.5084679
21
91.0769166
0
LINE
8
DEFAULT_255_2_778
10
10.5084679
20
91.0769166
11
10.5084679
21
88.5597166
0
LINE
8
DEFAULT_255_2_778
10
10.5084679
20
88.5597166
11
9.8654679
21
88.5597166
0
LINE
8
DEFAULT_255_2_778
10
18.4903679
20
90.3832166
11
18.5152679
21
90.2239166
0
LINE
8
DEFAULT_255_2_778
10
18.5152679
20
90.2239166
11
17.8415679
21
90.2239166
0
LINE
8
DEFAULT_255_2_778
10
17.8492679
20
89.4685166
11
18.5332679
21
89.4685166
0
LINE
8
DEFAULT_255_2_778
10
18.5332679
20
89.4685166
11
18.4977679
21
89.2331166
0
LINE
8
DEFAULT_255_1_388
10
9.4343024
20
87.3268898
11
9.6583864
21
87.3268898
0
LINE
8
DEFAULT_255_1_388
10
9.6583864
20
87.3268898
11
10.0884831
21
86.2534553
0
LINE
8
DEFAULT_255_1_388
10
10.0884831
20
86.2534553
11
10.5185797
21
87.3268898
0
LINE
8
DEFAULT_255_1_388
10
10.5185797
20
87.3268898
11
10.7435673
21
87.3268898
0
LINE
8
DEFAULT_255_1_388
10
10.7435673
20
87.3268898
11
10.7435673
21
86.0113
0
LINE
8
DEFAULT_255_1_388
10
10.7435673
20
86.0113
11
10.5700829
21
86.0113
0
LINE
8
DEFAULT_255_1_388
10
10.5700829
20
86.0113
11
10.5700829
21
86.523621
0
LINE
8
DEFAULT_255_1_388
10
10.5700829
20
86.523621
11
10.5863471
21
87.0766025
0
LINE
8
DEFAULT_255_1_388
10
10.5863471
20
87.0766025
11
10.1544433
21
86.0113
0
LINE
8
DEFAULT_255_1_388
10
10.1544433
20
86.0113
11
10.0216193
21
86.0113
0
LINE
8
DEFAULT_255_1_388
10
10.0216193
20
86.0113
11
9.590619
21
87.0738918
0
LINE
8
DEFAULT_255_1_388
10
9.590619
20
87.0738918
11
9.6077868
21
86.523621
0
LINE
8
DEFAULT_255_1_388
10
9.6077868
20
86.523621
11
9.6077868
21
86.0113
0
LINE
8
DEFAULT_255_1_388
10
9.6077868
20
86.0113
11
9.4343024
21
86.0113
0
LINE
8
DEFAULT_255_1_388
10
9.4343024
20
86.0113
11
9.4343024
21
87.3268898
0
LINE
8
DEFAULT_255_1_388
10
11.2052887
20
86.9889567
11
11.2052887
21
86.0113
0
LINE
8
DEFAULT_255_1_388
10
11.2052887
20
86.0113
11
11.0381293
21
86.0113
0
LINE
8
DEFAULT_255_1_388
10
11.0381293
20
86.0113
11
11.0381293
21
86.9889567
0
LINE
8
DEFAULT_255_1_388
10
11.0381293
20
86.9889567
11
11.2052887
21
86.9889567
0
ARC
8
DEFAULT_255_1_388
10
11.1346655
20
87.2493428
40
0.1100948
50
161.4148232
51
180.5532607
0
ARC
8
DEFAULT_255_1_388
10
11.1206965
20
87.2531875
40
0.0956324
50
138.1830164
51
160.9307633
0
ARC
8
DEFAULT_255_1_388
10
11.1083152
20
87.2639313
40
0.0792417
50
104.6371663
51
138.0036136
0
ARC
8
DEFAULT_255_1_388
10
11.1203691
20
87.2226963
40
0.1221906
50
92.0601206
51
105.2198859
0
ARC
8
DEFAULT_255_1_388
10
11.1230055
20
87.1838583
40
0.161103
50
89.9790681
51
92.5006086
0
ARC
8
DEFAULT_255_1_388
10
11.1241231
20
87.2094998
40
0.1354654
50
78.0234649
51
90.4478111
0
ARC
8
DEFAULT_255_1_388
10
11.1344815
20
87.2560203
40
0.0878096
50
55.0521508
51
78.336297
0
ARC
8
DEFAULT_255_1_388
10
11.140135
20
87.2655168
40
0.0767913
50
42.0506198
51
54.4508489
0
ARC
8
DEFAULT_255_1_388
10
11.1249383
20
87.2515821
40
0.0974091
50
1.7493657
51
42.1498724
0
ARC
8
DEFAULT_255_1_388
10
11.0963288
20
87.2483166
40
0.1261276
50
359.9832635
51
2.8353994
0
ARC
8
DEFAULT_255_1_388
10
11.1149698
20
87.2472412
40
0.1074916
50
342.1062453
51
0.5535864
0
ARC
8
DEFAULT_255_1_388
10
11.1310122
20
87.2428197
40
0.0908695
50
316.7110111
51
341.6513114
0
ARC
8
DEFAULT_255_1_388
10
11.1385554
20
87.2360607
40
0.0807447
50
285.4398289
51
316.5320129
0
ARC
8
DEFAULT_255_1_388
10
11.1261725
20
87.2772023
40
0.1237022
50
272.3543902
51
285.8951677
0
ARC
8
DEFAULT_255_1_388
10
11.1231435
20
87.3187742
40
0.1653687
50
269.9725761
51
272.8112722
0
ARC
8
DEFAULT_255_1_388
10
11.1220487
20
87.2936727
40
0.1402709
50
258.8433431
51
270.4148607
0
ARC
8
DEFAULT_255_1_388
10
11.1119267
20
87.2446739
40
0.0902407
50
238.54281
51
259.1289544
0
ARC
8
DEFAULT_255_1_388
10
11.1042588
20
87.2307694
40
0.0743817
50
222.5056676
51
237.9918132
0
ARC
8
DEFAULT_255_1_388
10
11.1186182
20
87.2438295
40
0.0937918
50
184.1070774
51
222.4604165
0
ARC
8
DEFAULT_255_1_388
10
11.1488596
20
87.2481538
40
0.1242838
50
179.9419581
51
185.0970785
0
LINE
8
DEFAULT_255_1_388
10
12.0952997
20
86.3194155
11
12.2534235
21
86.3194155
0
LINE
8
DEFAULT_255_1_388
10
11.4293727
20
86.4910927
11
11.4293727
21
86.5191032
0
LINE
8
DEFAULT_255_1_388
10
12.2534235
20
86.6528308
11
12.0952997
21
86.6528308
0
LINE
8
DEFAULT_255_1_388
10
11.5965321
20
86.5127783
11
11.5965321
21
86.4811535
0
ARC
8
DEFAULT_255_1_388
10
11.8689554
20
86.3704109
40
0.2407783
50
269.0327343
51
309.2224588
0
ARC
8
DEFAULT_255_1_388
10
11.8925558
20
86.346219
40
0.207135
50
308.3965377
51
329.6987678
0
ARC
8
DEFAULT_255_1_388
10
11.9080616
20
86.3344899
40
0.1878439
50
330.4013397
51
355.3970937
0
ARC
8
DEFAULT_255_1_388
10
11.95946
20
86.3364312
40
0.2944555
50
329.2357424
51
356.6872018
0
ARC
8
DEFAULT_255_1_388
10
11.8976495
20
86.3691153
40
0.3643032
50
324.8702872
51
329.7911998
0
ARC
8
DEFAULT_255_1_388
10
11.8887777
20
86.3767113
40
0.3759315
50
298.8769973
51
324.7015261
0
ARC
8
DEFAULT_255_1_388
10
11.8514321
20
86.436229
40
0.4461015
50
296.902888
51
299.3854973
0
ARC
8
DEFAULT_255_1_388
10
11.8660318
20
86.4038595
40
0.4106323
50
269.8407861
51
297.1298875
0
ARC
8
DEFAULT_255_1_388
10
11.8600314
20
86.4756354
40
0.4824312
50
253.3156606
51
270.5771301
0
ARC
8
DEFAULT_255_1_388
10
11.8322492
20
86.3750943
40
0.3781531
50
221.1002518
51
252.9743523
0
ARC
8
DEFAULT_255_1_388
10
11.8839962
20
86.4195131
40
0.4463481
50
194.5394284
51
221.0302764
0
ARC
8
DEFAULT_255_1_388
10
12.0919783
20
86.4774897
40
0.6622359
50
182.0498004
51
194.8774376
0
ARC
8
DEFAULT_255_1_388
10
12.2912873
20
86.4907778
40
0.8619146
50
179.9790673
51
182.4586753
0
ARC
8
DEFAULT_255_1_388
10
12.0956187
20
86.5224412
40
0.6662543
50
168.615001
51
180.2870547
0
ARC
8
DEFAULT_255_1_388
10
11.9604095
20
86.5489636
40
0.5284705
50
154.9162417
51
168.5402053
0
ARC
8
DEFAULT_255_1_388
10
11.8567371
20
86.6001942
40
0.4128641
50
133.5745308
51
155.2559538
0
ARC
8
DEFAULT_255_1_388
10
11.8384214
20
86.6158116
40
0.3889328
50
122.0165845
51
133.2056002
0
ARC
8
DEFAULT_255_1_388
10
11.8424538
20
86.6058977
40
0.3994808
50
97.8732516
51
121.753124
0
ARC
8
DEFAULT_255_1_388
10
11.8625996
20
86.486959
40
0.5200708
50
89.8471322
51
98.2768545
0
ARC
8
DEFAULT_255_1_388
10
11.8680844
20
86.5555809
40
0.4514657
50
73.3760755
51
90.5199878
0
ARC
8
DEFAULT_255_1_388
10
11.8901761
20
86.636855
40
0.3672743
50
47.7085939
51
73.0510707
0
ARC
8
DEFAULT_255_1_388
10
11.9047863
20
86.6495231
40
0.3480795
50
3.7442743
51
48.0844373
0
ARC
8
DEFAULT_255_1_388
10
11.7935857
20
86.6317946
40
0.4603187
50
2.6192831
51
5.0424684
0
ARC
8
DEFAULT_255_1_388
10
11.8451328
20
86.6362986
40
0.2507126
50
3.78087
51
23.9354314
0
ARC
8
DEFAULT_255_1_388
10
11.8708588
20
86.6453644
40
0.2235311
50
24.4867863
51
46.9439952
0
ARC
8
DEFAULT_255_1_388
10
11.8709533
20
86.6479874
40
0.2215567
50
46.4987715
51
89.3298168
0
ARC
8
DEFAULT_255_1_388
10
11.8640192
20
86.5813742
40
0.2883121
50
88.1066411
51
90.0063536
0
ARC
8
DEFAULT_255_1_388
10
11.8609168
20
86.5871548
40
0.2825481
50
89.3773571
51
107.2070287
0
ARC
8
DEFAULT_255_1_388
10
11.8448436
20
86.6453667
40
0.2221946
50
107.688418
51
143.3582986
0
ARC
8
DEFAULT_255_1_388
10
11.908673
20
86.5974064
40
0.3020337
50
143.2845866
51
162.9352432
0
ARC
8
DEFAULT_255_1_388
10
12.0780746
20
86.5430401
40
0.4799362
50
162.6652705
51
174.0802646
0
ARC
8
DEFAULT_255_1_388
10
12.3191227
20
86.5150287
40
0.7225942
50
173.8422673
51
180.1784414
0
ARC
8
DEFAULT_255_1_388
10
12.2574898
20
86.4777276
40
0.6609665
50
179.7030218
51
188.2277356
0
ARC
8
DEFAULT_255_1_388
10
12.0210505
20
86.4423143
40
0.4218948
50
188.0630838
51
201.115837
0
ARC
8
DEFAULT_255_1_388
10
11.897539
20
86.395173
40
0.2896941
50
201.2186162
51
216.9761863
0
ARC
8
DEFAULT_255_1_388
10
11.8467548
20
86.3571225
40
0.2262366
50
217.0136373
51
265.2055518
0
ARC
8
DEFAULT_255_1_388
10
11.8642885
20
86.4608503
40
0.3311837
50
263.6824874
51
270.1042034
0
LINE
8
DEFAULT_255_1_388
10
12.9139291
20
86.9943781
11
12.9139291
21
86.838965
0
LINE
8
DEFAULT_255_1_388
10
12.6085243
20
86.7052375
11
12.6085243
21
86.0113
0
LINE
8
DEFAULT_255_1_388
10
12.6085243
20
86.0113
11
12.4413649
21
86.0113
0
LINE
8
DEFAULT_255_1_388
10
12.4413649
20
86.0113
11
12.4413649
21
86.9889567
0
LINE
8
DEFAULT_255_1_388
10
12.4413649
20
86.9889567
11
12.6040065
21
86.9889567
0
LINE
8
DEFAULT_255_1_388
10
12.6040065
20
86.9889567
11
12.6067172
21
86.8760112
0
ARC
8
DEFAULT_255_1_388
10
12.8389451
20
86.3823068
40
0.4627735
50
80.6751522
51
86.893806
0
ARC
8
DEFAULT_255_1_388
10
12.8321281
20
86.2731103
40
0.5721798
50
86.8046851
51
90.0423898
0
ARC
8
DEFAULT_255_1_388
10
12.82797
20
86.5498197
40
0.2954939
50
89.2758283
51
106.6212906
0
ARC
8
DEFAULT_255_1_388
10
12.8049725
20
86.6334009
40
0.2088351
50
107.1347109
51
157.6456887
0
ARC
8
DEFAULT_255_1_388
10
12.8817787
20
86.5906908
40
0.296292
50
155.6557383
51
157.256838
0
ARC
8
DEFAULT_255_1_388
10
12.8597401
20
86.7217472
40
0.296341
50
127.8167201
51
148.6300223
0
ARC
8
DEFAULT_255_1_388
10
12.8312149
20
86.7510066
40
0.2557782
50
91.3329934
51
126.7875218
0
ARC
8
DEFAULT_255_1_388
10
12.8397536
20
86.6706718
40
0.3363561
50
89.9858247
51
92.4688453
0
ARC
8
DEFAULT_255_1_388
10
12.8407029
20
86.7015114
40
0.3055179
50
85.3587643
51
90.1624243
0
ARC
8
DEFAULT_255_1_388
10
12.8502094
20
86.8144458
40
0.1921848
50
78.4019195
51
85.4592653
0
ARC
8
DEFAULT_255_1_388
10
12.8665155
20
86.8922142
40
0.1127267
50
67.7849217
51
78.573798
0
ARC
8
DEFAULT_255_1_388
10
12.8786789
20
86.9237374
40
0.0789473
50
63.4805074
51
67.3074739
0
LINE
8
DEFAULT_255_1_388
10
13.0051891
20
86.4974177
11
13.0051891
21
86.509164
0
LINE
8
DEFAULT_255_1_388
10
13.8952001
20
86.5010319
11
13.8952001
21
86.4892856
0
ARC
8
DEFAULT_255_1_388
10
13.6336336
20
86.512804
40
0.628455
50
166.3005265
51
180.3318609
0
ARC
8
DEFAULT_255_1_388
10
13.5365685
20
86.5345267
40
0.52901
50
153.8608648
51
166.0965672
0
ARC
8
DEFAULT_255_1_388
10
13.4616851
20
86.5746652
40
0.4441126
50
135.1317053
51
154.2534962
0
ARC
8
DEFAULT_255_1_388
10
13.4303502
20
86.6023431
40
0.4023863
50
121.7042632
51
134.7771455
0
ARC
8
DEFAULT_255_1_388
10
13.4378934
20
86.5878469
40
0.4186852
50
93.4001111
51
121.5399523
0
ARC
8
DEFAULT_255_1_388
10
13.4485768
20
86.4948759
40
0.5121521
50
89.9706387
51
93.9763381
0
ARC
8
DEFAULT_255_1_388
10
13.4538753
20
86.5388563
40
0.4681988
50
71.3321659
51
90.6162917
0
ARC
8
DEFAULT_255_1_388
10
13.4721786
20
86.6066003
40
0.3981841
50
41.1813875
51
70.7072086
0
ARC
8
DEFAULT_255_1_388
10
13.4184503
20
86.557813
40
0.4707474
50
12.1971434
51
41.3446641
0
ARC
8
DEFAULT_255_1_388
10
13.2017766
20
86.5062328
40
0.6934429
50
359.5702713
51
12.5803533
0
ARC
8
DEFAULT_255_1_388
10
13.2550082
20
86.4857207
40
0.6402018
50
347.0196754
51
0.3190452
0
ARC
8
DEFAULT_255_1_388
10
13.3628136
20
86.4625189
40
0.5299421
50
334.350439
51
346.8460534
0
ARC
8
DEFAULT_255_1_388
10
13.4579382
20
86.4131244
40
0.4228234
50
310.4228125
51
334.8045131
0
ARC
8
DEFAULT_255_1_388
10
13.467136
20
86.4059301
40
0.4113892
50
301.8488154
51
310.0972985
0
ARC
8
DEFAULT_255_1_388
10
13.46351
20
86.4144573
40
0.4205483
50
274.3078723
51
301.6554173
0
ARC
8
DEFAULT_255_1_388
10
13.4510556
20
86.5131943
40
0.5199658
50
269.954904
51
274.859116
0
ARC
8
DEFAULT_255_1_388
10
13.445538
20
86.4568239
40
0.4636233
50
250.8887647
51
270.6313164
0
ARC
8
DEFAULT_255_1_388
10
13.4286541
20
86.3939405
40
0.398705
50
221.1701369
51
250.2227012
0
ARC
8
DEFAULT_255_1_388
10
13.4831206
20
86.4435716
40
0.4723796
50
191.6263861
51
221.3526879
0
ARC
8
DEFAULT_255_1_388
10
13.6955052
20
86.4927203
40
0.6903321
50
179.6101251
51
192.0694841
0
ARC
8
DEFAULT_255_1_388
10
13.7431399
20
86.4856681
40
0.5698993
50
179.636304
51
190.6161344
0
ARC
8
DEFAULT_255_1_388
10
13.5583731
20
86.4496635
40
0.3816643
50
190.4136062
51
208.7168709
0
ARC
8
DEFAULT_255_1_388
10
13.5009765
20
86.4211905
40
0.3176572
50
209.187109
51
217.4221816
0
ARC
8
DEFAULT_255_1_388
10
13.4414235
20
86.3687729
40
0.2385702
50
216.1156863
51
265.2575395
0
ARC
8
DEFAULT_255_1_388
10
13.4503272
20
86.4332608
40
0.3035941
50
264.5891546
51
270.0602378
0
ARC
8
DEFAULT_255_1_388
10
13.4540469
20
86.3905539
40
0.2609091
50
269.2532353
51
291.8793864
0
ARC
8
DEFAULT_255_1_388
10
13.4573348
20
86.3705359
40
0.241148
50
292.9269367
51
323.1777736
0
ARC
8
DEFAULT_255_1_388
10
13.4102633
20
86.4118762
40
0.3036446
50
322.25666
51
323.087958
0
ARC
8
DEFAULT_255_1_388
10
13.3799891
20
86.4301332
40
0.3388345
50
323.6941379
51
343.8493587
0
ARC
8
DEFAULT_255_1_388
10
13.2024327
20
86.4841698
40
0.5244204
50
343.5746655
51
355.008149
0
ARC
8
DEFAULT_255_1_388
10
12.9766018
20
86.5075797
40
0.7514406
50
354.728272
51
0.1208026
0
ARC
8
DEFAULT_255_1_388
10
13.1755044
20
86.5127947
40
0.5525482
50
359.6235211
51
11.2016685
0
ARC
8
DEFAULT_255_1_388
10
13.3480871
20
86.5483284
40
0.3763527
50
10.9991302
51
30.8317616
0
ARC
8
DEFAULT_255_1_388
10
13.3926175
20
86.5717988
40
0.3260975
50
31.3007463
51
37.395541
0
ARC
8
DEFAULT_255_1_388
10
13.4484894
20
86.6189773
40
0.253082
50
36.5918894
51
62.2439906
0
ARC
8
DEFAULT_255_1_388
10
13.4537186
20
86.6186378
40
0.2509927
50
63.3364883
51
89.7193846
0
ARC
8
DEFAULT_255_1_388
10
13.4488639
20
86.5538375
40
0.3158485
50
88.8962924
51
90.004475
0
ARC
8
DEFAULT_255_1_388
10
13.4453067
20
86.6191071
40
0.250604
50
89.1923115
51
114.7099029
0
ARC
8
DEFAULT_255_1_388
10
13.4485408
20
86.6233675
40
0.2481307
50
115.7996284
51
142.2901353
0
ARC
8
DEFAULT_255_1_388
10
13.4953679
20
86.5814752
40
0.310833
50
141.4607507
51
142.383894
0
ARC
8
DEFAULT_255_1_388
10
13.5101531
20
86.5746449
40
0.3267335
50
143.0176473
51
163.2340089
0
ARC
8
DEFAULT_255_1_388
10
13.6876819
20
86.5184553
40
0.5129308
50
162.9446504
51
174.3733893
0
ARC
8
DEFAULT_255_1_388
10
13.9290792
20
86.4913483
40
0.75583
50
174.1225809
51
180.1563667
0
LINE
8
DEFAULT_255_1_388
10
15.3327711
20
86.7612585
11
15.3327711
21
86.6193989
0
LINE
8
DEFAULT_255_1_388
10
15.3327711
20
86.6193989
11
14.762622
21
86.6193989
0
LINE
8
DEFAULT_255_1_388
10
14.762622
20
86.6193989
11
14.762622
21
86.1531596
0
LINE
8
DEFAULT_255_1_388
10
14.762622
20
86.1531596
11
15.4249347
21
86.1531596
0
LINE
8
DEFAULT_255_1_388
10
15.4249347
20
86.1531596
11
15.4249347
21
86.0113
0
LINE
8
DEFAULT_255_1_388
10
15.4249347
20
86.0113
11
14.5891376
21
86.0113
0
LINE
8
DEFAULT_255_1_388
10
14.5891376
20
86.0113
11
14.5891376
21
87.3268898
0
LINE
8
DEFAULT_255_1_388
10
14.5891376
20
87.3268898
11
15.4158991
21
87.3268898
0
LINE
8
DEFAULT_255_1_388
10
15.4158991
20
87.3268898
11
15.4158991
21
87.1841267
0
LINE
8
DEFAULT_255_1_388
10
15.4158991
20
87.1841267
11
14.762622
21
87.1841267
0
LINE
8
DEFAULT_255_1_388
10
14.762622
20
87.1841267
11
14.762622
21
86.7612585
0
LINE
8
DEFAULT_255_1_388
10
14.762622
20
86.7612585
11
15.3327711
21
86.7612585
0
LINE
8
DEFAULT_255_1_388
10
16.6519752
20
87.3268898
11
16.6519752
21
86.0113
0
LINE
8
DEFAULT_255_1_388
10
16.6519752
20
86.0113
11
16.4775873
21
86.0113
0
LINE
8
DEFAULT_255_1_388
10
16.4775873
20
86.0113
11
16.4775873
21
86.6193989
0
LINE
8
DEFAULT_255_1_388
10
16.4775873
20
86.6193989
11
15.814371
21
86.6193989
0
LINE
8
DEFAULT_255_1_388
10
15.814371
20
86.6193989
11
15.814371
21
86.0113
0
LINE
8
DEFAULT_255_1_388
10
15.814371
20
86.0113
11
15.6408866
21
86.0113
0
LINE
8
DEFAULT_255_1_388
10
15.6408866
20
86.0113
11
15.6408866
21
87.3268898
0
LINE
8
DEFAULT_255_1_388
10
15.6408866
20
87.3268898
11
15.814371
21
87.3268898
0
LINE
8
DEFAULT_255_1_388
10
15.814371
20
87.3268898
11
15.814371
21
86.7612585
0
LINE
8
DEFAULT_255_1_388
10
15.814371
20
86.7612585
11
16.4775873
21
86.7612585
0
LINE
8
DEFAULT_255_1_388
10
16.4775873
20
86.7612585
11
16.4775873
21
87.3268898
0
LINE
8
DEFAULT_255_1_388
10
16.4775873
20
87.3268898
11
16.6519752
21
87.3268898
0
LINE
8
DEFAULT_255_1_388
10
17.0215331
20
87.3268898
11
17.3956088
21
86.2417089
0
LINE
8
DEFAULT_255_1_388
10
17.3956088
20
86.2417089
11
17.7714916
21
87.3268898
0
LINE
8
DEFAULT_255_1_388
10
17.7714916
20
87.3268898
11
17.9612401
21
87.3268898
0
LINE
8
DEFAULT_255_1_388
10
17.9612401
20
87.3268898
11
17.4733153
21
86.0113
0
LINE
8
DEFAULT_255_1_388
10
17.4733153
20
86.0113
11
17.3197094
21
86.0113
0
LINE
8
DEFAULT_255_1_388
10
17.3197094
20
86.0113
11
16.8326881
21
87.3268898
0
LINE
8
DEFAULT_255_1_388
10
16.8326881
20
87.3268898
11
17.0215331
21
87.3268898
0
LINE
8
DEFAULT_255_1_388
10
18.590121
20
87.1009987
11
18.590121
21
86.7169838
0
LINE
8
DEFAULT_255_1_388
10
18.590121
20
86.7169838
11
18.9569682
21
86.7169838
0
LINE
8
DEFAULT_255_1_388
10
18.9569682
20
86.7169838
11
18.9569682
21
86.5588601
0
LINE
8
DEFAULT_255_1_388
10
18.9569682
20
86.5588601
11
18.590121
21
86.5588601
0
LINE
8
DEFAULT_255_1_388
10
18.590121
20
86.5588601
11
18.590121
21
86.1432204
0
LINE
8
DEFAULT_255_1_388
10
18.590121
20
86.1432204
11
18.422058
21
86.1432204
0
LINE
8
DEFAULT_255_1_388
10
18.422058
20
86.1432204
11
18.422058
21
86.5588601
0
LINE
8
DEFAULT_255_1_388
10
18.422058
20
86.5588601
11
18.0552108
21
86.5588601
0
LINE
8
DEFAULT_255_1_388
10
18.0552108
20
86.5588601
11
18.0552108
21
86.7169838
0
LINE
8
DEFAULT_255_1_388
10
18.0552108
20
86.7169838
11
18.422058
21
86.7169838
0
LINE
8
DEFAULT_255_1_388
10
18.422058
20
86.7169838
11
18.422058
21
87.1009987
0
LINE
8
DEFAULT_255_1_388
10
18.422058
20
87.1009987
11
18.590121
21
87.1009987
0
LINE
8
DEFAULT_255_2_778
10
9.3932417
20
76.5968579
11
10.7161417
21
76.5968579
0
LINE
8
DEFAULT_255_2_778
10
10.7161417
20
76.5968579
11
10.7161417
21
43.5239579
0
LINE
8
DEFAULT_255_2_778
10
9.3932834
20
43.5239333
11
12.0390834
21
43.5239333
0
LINE
8
DEFAULT_255_2_778
10
12.0390834
20
43.5239333
11
12.0390834
21
38.2322333
0
LINE
8
DEFAULT_255_2_778
10
12.0390834
20
38.2322333
11
9.3932834
21
38.2322333
0
LINE
8
DEFAULT_255_2_778
10
9.3932834
20
38.2322333
11
9.3932834
21
43.5239333
0
ARC
8
DEFAULT_255_2_778_1
10
13.1928591
20
38.334677
40
4.816461
50
120.9442904
51
122.351755
0
ARC
8
DEFAULT_255_2_778_1
10
12.7462523
20
39.0383039
40
3.9830657
50
122.3407904
51
124.1946752
0
ARC
8
DEFAULT_255_2_778_1
10
12.3063464
20
39.6848306
40
3.2010724
50
124.1855758
51
126.4338849
0
ARC
8
DEFAULT_255_2_778_1
10
11.9204129
20
40.2075611
40
2.5513094
50
126.4326926
51
128.8877368
0
ARC
8
DEFAULT_255_2_778_1
10
11.5855968
20
40.6219658
40
2.0185498
50
128.8749205
51
131.8726567
0
ARC
8
DEFAULT_255_2_778_1
10
11.2884677
20
40.9529854
40
1.5737356
50
131.8616166
51
135.4168838
0
ARC
8
DEFAULT_255_2_778_1
10
11.025668
20
41.2111765
40
1.2053256
50
135.3893975
51
139.9687014
0
ARC
8
DEFAULT_255_2_778_1
10
10.7927889
20
41.4060102
40
0.9016937
50
139.9301659
51
145.9260426
0
ARC
8
DEFAULT_255_2_778_1
10
10.596654
20
41.5380104
40
0.6652776
50
145.8787362
51
153.8146208
0
ARC
8
DEFAULT_255_2_778_1
10
10.4445553
20
41.6123797
40
0.4959714
50
153.770634
51
164.3484794
0
ARC
8
DEFAULT_255_2_778_1
10
10.3432387
20
41.6405786
40
0.3908039
50
164.3220276
51
179.8083066
0
ARC
8
DEFAULT_255_2_778_1
10
10.3642789
20
41.648715
40
0.4118985
50
180.9499449
51
213.8111542
0
ARC
8
DEFAULT_255_2_778_1
10
10.6401828
20
41.8182896
40
0.73561
50
212.8271214
51
224.258472
0
ARC
8
DEFAULT_255_2_778_1
10
11.0230335
20
42.1876236
40
1.267567
50
224.1376218
51
231.4508261
0
ARC
8
DEFAULT_255_2_778_1
10
11.6657195
20
42.9906168
40
2.2960809
50
231.3955893
51
236.1256478
0
ARC
8
DEFAULT_255_2_778_1
10
13.4980223
20
45.7371293
40
5.5976905
50
236.2233172
51
239.1314682
0
ARC
8
DEFAULT_255_2_778_1
10
25.447927
20
65.4648568
40
28.6623793
50
238.8606853
51
239.0711101
0
ARC
8
DEFAULT_255_2_778_1
10
6.2757281
20
33.3677653
40
8.7248518
50
57.2420924
51
59.4062964
0
ARC
8
DEFAULT_255_2_778_1
10
9.5034241
20
38.3987102
40
2.747542
50
52.8289294
51
57.079028
0
ARC
8
DEFAULT_255_2_778_1
10
10.2780783
20
39.4190488
40
1.466457
50
46.3041868
51
52.8596521
0
ARC
8
DEFAULT_255_2_778_1
10
10.7103073
20
39.8691842
40
0.8424061
50
36.2174211
51
46.4090895
0
ARC
8
DEFAULT_255_2_778_1
10
10.9948088
20
40.0740128
40
0.4918609
50
17.400375
51
36.5489745
0
ARC
8
DEFAULT_255_2_778_1
10
11.1088994
20
40.1138754
40
0.3710912
50
0.0676858
51
16.7951297
0
ARC
8
DEFAULT_255_2_778_1
10
11.0878613
20
40.1157428
40
0.3921317
50
343.8035191
51
359.7912046
0
ARC
8
DEFAULT_255_2_778_1
10
10.9815912
20
40.1462167
40
0.5026844
50
333.2506233
51
343.8465691
0
ARC
8
DEFAULT_255_2_778_1
10
10.8277757
20
40.2229313
40
0.6745679
50
325.6600948
51
333.3122657
0
ARC
8
DEFAULT_255_2_778_1
10
10.6323344
20
40.3557296
40
0.9108568
50
319.7560915
51
325.6976089
0
ARC
8
DEFAULT_255_2_778_1
10
10.404199
20
40.5475002
40
1.2088854
50
315.4577584
51
319.8037947
0
ARC
8
DEFAULT_255_2_778_1
10
10.1408127
20
40.8063507
40
1.5781764
50
311.7298824
51
315.4670864
0
ARC
8
DEFAULT_255_2_778_1
10
9.8317879
20
41.1519074
40
2.0417554
50
308.723055
51
311.7470879
0
ARC
8
DEFAULT_255_2_778_1
10
9.477589
20
41.5931492
40
2.6075745
50
306.1165163
51
308.7300151
0
ARC
8
DEFAULT_255_2_778_1
10
9.0746091
20
42.1444523
40
3.2904564
50
303.9559446
51
306.1266333
0
ARC
8
DEFAULT_255_2_778_1
10
8.6630432
20
42.753715
40
4.0257023
50
302.3733397
51
303.9712246
0
ARC
8
DEFAULT_255_2_778_1
10
8.2434347
20
43.4152058
40
4.8090549
50
300.9434827
51
302.3758078
0
LINE
8
DEFAULT_255_2_778
10
10.7161335
20
38.232249
11
10.7161335
21
5.159349
0
LINE
8
DEFAULT_255_2_778
10
10.7161335
20
5.159349
11
9.3932335
21
5.159349
0
LINE
8
DEFAULT_255_2_778
10
19.9765335
20
76.596849
11
18.6536335
21
76.596849
0
LINE
8
DEFAULT_255_2_778
10
18.6536335
20
76.596849
11
18.6536335
21
59.398949
0
LINE
8
DEFAULT_255_2_778
10
17.3307834
20
59.3989333
11
19.9765834
21
59.3989333
0
LINE
8
DEFAULT_255_2_778
10
19.9765834
20
59.3989333
11
19.9765834
21
54.1072333
0
LINE
8
DEFAULT_255_2_778
10
19.9765834
20
54.1072333
11
17.3307834
21
54.1072333
0
LINE
8
DEFAULT_255_2_778
10
17.3307834
20
54.1072333
11
17.3307834
21
59.3989333
0
ARC
8
DEFAULT_255_2_778_1
10
21.1303591
20
54.209677
40
4.816461
50
120.9442904
51
122.351755
0
ARC
8
DEFAULT_255_2_778_1
10
20.6837523
20
54.9133039
40
3.9830657
50
122.3407904
51
124.1946752
0
ARC
8
DEFAULT_255_2_778_1
10
20.2438464
20
55.5598306
40
3.2010724
50
124.1855758
51
126.4338849
0
ARC
8
DEFAULT_255_2_778_1
10
19.8579129
20
56.0825611
40
2.5513094
50
126.4326926
51
128.8877368
0
ARC
8
DEFAULT_255_2_778_1
10
19.5230968
20
56.4969658
40
2.0185498
50
128.8749205
51
131.8726567
0
ARC
8
DEFAULT_255_2_778_1
10
19.2259677
20
56.8279854
40
1.5737356
50
131.8616166
51
135.4168838
0
ARC
8
DEFAULT_255_2_778_1
10
18.963168
20
57.0861765
40
1.2053256
50
135.3893975
51
139.9687014
0
ARC
8
DEFAULT_255_2_778_1
10
18.7302889
20
57.2810102
40
0.9016937
50
139.9301659
51
145.9260426
0
ARC
8
DEFAULT_255_2_778_1
10
18.534154
20
57.4130104
40
0.6652776
50
145.8787362
51
153.8146208
0
ARC
8
DEFAULT_255_2_778_1
10
18.3820553
20
57.4873797
40
0.4959714
50
153.770634
51
164.3484794
0
ARC
8
DEFAULT_255_2_778_1
10
18.2807387
20
57.5155786
40
0.3908039
50
164.3220276
51
179.8083066
0
ARC
8
DEFAULT_255_2_778_1
10
18.3017789
20
57.523715
40
0.4118985
50
180.9499449
51
213.8111542
0
ARC
8
DEFAULT_255_2_778_1
10
18.5776828
20
57.6932896
40
0.73561
50
212.8271214
51
224.258472
0
ARC
8
DEFAULT_255_2_778_1
10
18.9605335
20
58.0626236
40
1.267567
50
224.1376218
51
231.4508261
0
ARC
8
DEFAULT_255_2_778_1
10
19.6032195
20
58.8656168
40
2.2960809
50
231.3955893
51
236.1256478
0
ARC
8
DEFAULT_255_2_778_1
10
21.4355223
20
61.6121293
40
5.5976905
50
236.2233172
51
239.1314682
0
ARC
8
DEFAULT_255_2_778_1
10
33.385427
20
81.3398568
40
28.6623793
50
238.8606853
51
239.0711101
0
ARC
8
DEFAULT_255_2_778_1
10
14.2132281
20
49.2427653
40
8.7248518
50
57.2420924
51
59.4062964
0
ARC
8
DEFAULT_255_2_778_1
10
17.4409241
20
54.2737102
40
2.747542
50
52.8289294
51
57.079028
0
ARC
8
DEFAULT_255_2_778_1
10
18.2155783
20
55.2940488
40
1.466457
50
46.3041868
51
52.8596521
0
ARC
8
DEFAULT_255_2_778_1
10
18.6478073
20
55.7441842
40
0.8424061
50
36.2174211
51
46.4090895
0
ARC
8
DEFAULT_255_2_778_1
10
18.9323088
20
55.9490128
40
0.4918609
50
17.400375
51
36.5489745
0
ARC
8
DEFAULT_255_2_778_1
10
19.0463994
20
55.9888754
40
0.3710912
50
0.0676858
51
16.7951297
0
ARC
8
DEFAULT_255_2_778_1
10
19.0253613
20
55.9907428
40
0.3921317
50
343.8035191
51
359.7912046
0
ARC
8
DEFAULT_255_2_778_1
10
18.9190912
20
56.0212167
40
0.5026844
50
333.2506233
51
343.8465691
0
ARC
8
DEFAULT_255_2_778_1
10
18.7652757
20
56.0979313
40
0.6745679
50
325.6600948
51
333.3122657
0
ARC
8
DEFAULT_255_2_778_1
10
18.5698344
20
56.2307296
40
0.9108568
50
319.7560915
51
325.6976089
0
ARC
8
DEFAULT_255_2_778_1
10
18.341699
20
56.4225002
40
1.2088854
50
315.4577584
51
319.8037947
0
ARC
8
DEFAULT_255_2_778_1
10
18.0783127
20
56.6813507
40
1.5781764
50
311.7298824
51
315.4670864
0
ARC
8
DEFAULT_255_2_778_1
10
17.7692879
20
57.0269074
40
2.0417554
50
308.723055
51
311.7470879
0
ARC
8
DEFAULT_255_2_778_1
10
17.415089
20
57.4681492
40
2.6075745
50
306.1165163
51
308.7300151
0
ARC
8
DEFAULT_255_2_778_1
10
17.0121091
20
58.0194523
40
3.2904564
50
303.9559446
51
306.1266333
0
ARC
8
DEFAULT_255_2_778_1
10
16.6005432
20
58.628715
40
4.0257023
50
302.3733397
51
303.9712246
0
ARC
8
DEFAULT_255_2_778_1
10
16.1809347
20
59.2902058
40
4.8090549
50
300.9434827
51
302.3758078
0
LINE
8
DEFAULT_255_2_778
10
18.6536417
20
54.1072581
11
18.6536417
21
36.9093581
0
LINE
8
DEFAULT_255_2_778
10
18.6536417
20
36.9093581
11
19.9765417
21
36.9093581
0
LINE
8
DEFAULT_255_1_388
10
4.8798318
20
84.1633382
11
4.8798318
21
84.0269
0
LINE
8
DEFAULT_255_1_388
10
4.8798318
20
84.0269
11
4.0178313
21
84.0269
0
LINE
8
DEFAULT_255_1_388
10
4.0178313
20
84.0269
11
4.0178313
21
84.1470741
0
LINE
8
DEFAULT_255_1_388
10
4.0178313
20
84.1470741
11
4.4732278
21
84.6530702
0
LINE
8
DEFAULT_255_1_388
10
4.1596909
20
84.9548607
11
3.9925315
21
84.9548607
0
LINE
8
DEFAULT_255_1_388
10
4.5717163
20
84.545546
11
4.2193262
21
84.1633382
0
LINE
8
DEFAULT_255_1_388
10
4.2193262
20
84.1633382
11
4.8798318
21
84.1633382
0
ARC
8
DEFAULT_255_1_388
10
2.9556337
20
85.9950983
40
2.0258655
50
318.5132526
51
320.7829045
0
ARC
8
DEFAULT_255_1_388
10
3.5504294
20
85.5109929
40
1.2589638
50
320.7372878
51
323.9739031
0
ARC
8
DEFAULT_255_1_388
10
3.9913226
20
85.1915554
40
0.7145141
50
323.8962701
51
328.64194
0
ARC
8
DEFAULT_255_1_388
10
4.2215484
20
85.0495545
40
0.4440242
50
328.8294576
51
331.7891185
0
ARC
8
DEFAULT_255_1_388
10
4.3337804
20
84.9916374
40
0.3177517
50
331.4254512
51
352.9365785
0
ARC
8
DEFAULT_255_1_388
10
4.3490804
20
84.988205
40
0.3021496
50
353.2257659
51
0.0166158
0
ARC
8
DEFAULT_255_1_388
10
4.3727564
20
84.9907894
40
0.2784847
50
359.486299
51
15.9343185
0
ARC
8
DEFAULT_255_1_388
10
4.4297831
20
85.0061269
40
0.2194403
50
16.1712913
51
43.5286088
0
ARC
8
DEFAULT_255_1_388
10
4.4384776
20
85.0148191
40
0.2071504
50
43.4417391
51
83.1661095
0
ARC
8
DEFAULT_255_1_388
10
4.4233937
20
84.9319316
40
0.2912888
50
82.160179
51
90.1505708
0
ARC
8
DEFAULT_255_1_388
10
4.4198418
20
84.8715279
40
0.3517025
50
89.5460741
51
102.5418361
0
ARC
8
DEFAULT_255_1_388
10
4.3925138
20
84.9874933
40
0.2325748
50
102.1738499
51
129.206123
0
ARC
8
DEFAULT_255_1_388
10
4.3836592
20
85.0014664
40
0.2161591
50
129.72865
51
135.753947
0
ARC
8
DEFAULT_255_1_388
10
4.3973074
20
84.9905728
40
0.2335433
50
136.1757367
51
166.3673339
0
ARC
8
DEFAULT_255_1_388
10
4.5105762
20
84.9602148
40
0.3507873
50
165.9090694
51
178.8684636
0
ARC
8
DEFAULT_255_1_388
10
4.6081534
20
84.9549263
40
0.4484624
50
178.4391136
51
180.0083808
0
ARC
8
DEFAULT_255_1_388
10
4.4502235
20
84.9593197
40
0.4577138
50
163.2878482
51
180.5581842
0
ARC
8
DEFAULT_255_1_388
10
4.3600276
20
84.9841393
40
0.3641968
50
133.4540601
51
162.947111
0
ARC
8
DEFAULT_255_1_388
10
4.3801158
20
84.9627789
40
0.3935189
50
100.7869829
51
133.4382499
0
ARC
8
DEFAULT_255_1_388
10
4.4192403
20
84.7885399
40
0.5720313
50
89.660664
51
101.3702276
0
ARC
8
DEFAULT_255_1_388
10
4.4267012
20
84.7954263
40
0.5651495
50
78.2172678
51
90.412935
0
ARC
8
DEFAULT_255_1_388
10
4.4666478
20
84.9781511
40
0.378122
50
55.9269121
51
78.4888449
0
ARC
8
DEFAULT_255_1_388
10
4.4887193
20
85.0162187
40
0.3342379
50
47.929771
51
55.4049217
0
ARC
8
DEFAULT_255_1_388
10
4.5001723
20
85.0278618
40
0.3179217
50
4.334829
51
48.0560205
0
ARC
8
DEFAULT_255_1_388
10
4.3769525
20
85.0087487
40
0.442341
50
359.9251713
51
5.5971671
0
ARC
8
DEFAULT_255_1_388
10
4.425168
20
85.0150728
40
0.3941854
50
337.8914027
51
358.9967534
0
ARC
8
DEFAULT_255_1_388
10
4.119925
20
85.1328295
40
0.7213271
50
326.9132501
51
338.3508308
0
ARC
8
DEFAULT_255_1_388
10
3.6715362
20
85.4202105
40
1.2538973
50
319.6471833
51
327.0959558
0
ARC
8
DEFAULT_255_1_388
10
3.240202
20
85.776005
40
1.8129975
50
317.2588228
51
319.9045804
0
LINE
8
DEFAULT_255_1_388
10
5.7626143
20
85.3424898
11
5.7626143
21
84.468743
0
LINE
8
DEFAULT_255_1_388
10
5.7626143
20
84.468743
11
5.9451343
21
84.468743
0
LINE
8
DEFAULT_255_1_388
10
5.9451343
20
84.468743
11
5.9451343
21
84.3323048
0
LINE
8
DEFAULT_255_1_388
10
5.9451343
20
84.3323048
11
5.7626143
21
84.3323048
0
LINE
8
DEFAULT_255_1_388
10
5.7626143
20
84.3323048
11
5.7626143
21
84.0269
0
LINE
8
DEFAULT_255_1_388
10
5.7626143
20
84.0269
11
5.5945513
21
84.0269
0
LINE
8
DEFAULT_255_1_388
10
5.5945513
20
84.0269
11
5.5945513
21
84.3323048
0
LINE
8
DEFAULT_255_1_388
10
5.5945513
20
84.3323048
11
4.995488
21
84.3323048
0
LINE
8
DEFAULT_255_1_388
10
4.995488
20
84.3323048
11
4.995488
21
84.4307933
0
LINE
8
DEFAULT_255_1_388
10
4.995488
20
84.4307933
11
5.5846121
21
85.3424898
0
LINE
8
DEFAULT_255_1_388
10
5.5846121
20
85.3424898
11
5.7626143
21
85.3424898
0
LINE
8
DEFAULT_255_1_388
10
5.5746729
20
85.0777455
11
5.1852366
21
84.468743
0
LINE
8
DEFAULT_255_1_388
10
5.1852366
20
84.468743
11
5.5945513
21
84.468743
0
LINE
8
DEFAULT_255_1_388
10
5.5945513
20
84.468743
11
5.5945513
21
85.113888
0
LINE
8
DEFAULT_255_1_388
10
5.5945513
20
85.113888
11
5.5746729
21
85.0777455
0
LINE
8
DEFAULT_255_1_388
10
6.200843
20
85.3424898
11
6.5749187
21
84.2573089
0
LINE
8
DEFAULT_255_1_388
10
6.5749187
20
84.2573089
11
6.9508015
21
85.3424898
0
LINE
8
DEFAULT_255_1_388
10
6.9508015
20
85.3424898
11
7.14055
21
85.3424898
0
LINE
8
DEFAULT_255_1_388
10
7.14055
20
85.3424898
11
6.6526252
21
84.0269
0
LINE
8
DEFAULT_255_1_388
10
6.6526252
20
84.0269
11
6.4990193
21
84.0269
0
LINE
8
DEFAULT_255_1_388
10
6.4990193
20
84.0269
11
6.011998
21
85.3424898
0
LINE
8
DEFAULT_255_1_388
10
6.011998
20
85.3424898
11
6.200843
21
85.3424898
0
LINE
8
DEFAULT_255_1_388
10
4.3169367
20
5.9674898
11
4.3169367
21
4.6519
0
LINE
8
DEFAULT_255_1_388
10
4.3169367
20
4.6519
11
4.1434523
21
4.6519
0
LINE
8
DEFAULT_255_1_388
10
4.1434523
20
4.6519
11
4.1434523
21
5.9674898
0
LINE
8
DEFAULT_255_1_388
10
4.1434523
20
5.9674898
11
4.3169367
21
5.9674898
0
LINE
8
DEFAULT_255_1_388
10
5.6451764
20
5.9674898
11
5.6451764
21
4.6519
0
LINE
8
DEFAULT_255_1_388
10
5.6451764
20
4.6519
11
5.4707885
21
4.6519
0
LINE
8
DEFAULT_255_1_388
10
5.4707885
20
4.6519
11
4.8084757
21
5.6656993
0
LINE
8
DEFAULT_255_1_388
10
4.8084757
20
5.6656993
11
4.8084757
21
4.6519
0
LINE
8
DEFAULT_255_1_388
10
4.8084757
20
4.6519
11
4.6340878
21
4.6519
0
LINE
8
DEFAULT_255_1_388
10
4.6340878
20
4.6519
11
4.6340878
21
5.9674898
0
LINE
8
DEFAULT_255_1_388
10
4.6340878
20
5.9674898
11
4.8084757
21
5.9674898
0
LINE
8
DEFAULT_255_1_388
10
4.8084757
20
5.9674898
11
5.4725956
21
4.9491727
0
LINE
8
DEFAULT_255_1_388
10
5.4725956
20
4.9491727
11
5.4725956
21
5.9674898
0
LINE
8
DEFAULT_255_1_388
10
5.4725956
20
5.9674898
11
5.6451764
21
5.9674898
0
LINE
8
DEFAULT_255_1_388
10
6.6156046
20
5.9674898
11
6.6156046
21
5.093743
0
LINE
8
DEFAULT_255_1_388
10
6.6156046
20
5.093743
11
6.7981247
21
5.093743
0
LINE
8
DEFAULT_255_1_388
10
6.7981247
20
5.093743
11
6.7981247
21
4.9573048
0
LINE
8
DEFAULT_255_1_388
10
6.7981247
20
4.9573048
11
6.6156046
21
4.9573048
0
LINE
8
DEFAULT_255_1_388
10
6.6156046
20
4.9573048
11
6.6156046
21
4.6519
0
LINE
8
DEFAULT_255_1_388
10
6.6156046
20
4.6519
11
6.4475417
21
4.6519
0
LINE
8
DEFAULT_255_1_388
10
6.4475417
20
4.6519
11
6.4475417
21
4.9573048
0
LINE
8
DEFAULT_255_1_388
10
6.4475417
20
4.9573048
11
5.8484784
21
4.9573048
0
LINE
8
DEFAULT_255_1_388
10
5.8484784
20
4.9573048
11
5.8484784
21
5.0557933
0
LINE
8
DEFAULT_255_1_388
10
5.8484784
20
5.0557933
11
6.4376024
21
5.9674898
0
LINE
8
DEFAULT_255_1_388
10
6.4376024
20
5.9674898
11
6.6156046
21
5.9674898
0
LINE
8
DEFAULT_255_1_388
10
6.4276632
20
5.7027455
11
6.038227
21
5.093743
0
LINE
8
DEFAULT_255_1_388
10
6.038227
20
5.093743
11
6.4475417
21
5.093743
0
LINE
8
DEFAULT_255_1_388
10
6.4475417
20
5.093743
11
6.4475417
21
5.738888
0
LINE
8
DEFAULT_255_1_388
10
6.4475417
20
5.738888
11
6.4276632
21
5.7027455
0
LINE
8
DEFAULT_255_1_388
10
7.31406
20
5.2789737
11
7.31406
21
5.1425355
0
LINE
8
DEFAULT_255_1_388
10
7.31406
20
5.1425355
11
6.8731205
21
5.1425355
0
LINE
8
DEFAULT_255_1_388
10
6.8731205
20
5.1425355
11
6.8731205
21
5.2789737
0
LINE
8
DEFAULT_255_1_388
10
6.8731205
20
5.2789737
11
7.31406
21
5.2789737
0
LINE
8
DEFAULT_255_1_388
10
4.1805367
20
13.9049898
11
4.1805367
21
12.5894
0
LINE
8
DEFAULT_255_1_388
10
4.1805367
20
12.5894
11
4.0070523
21
12.5894
0
LINE
8
DEFAULT_255_1_388
10
4.0070523
20
12.5894
11
4.0070523
21
13.9049898
0
LINE
8
DEFAULT_255_1_388
10
4.0070523
20
13.9049898
11
4.1805367
21
13.9049898
0
LINE
8
DEFAULT_255_1_388
10
5.5087764
20
13.9049898
11
5.5087764
21
12.5894
0
LINE
8
DEFAULT_255_1_388
10
5.5087764
20
12.5894
11
5.3343885
21
12.5894
0
LINE
8
DEFAULT_255_1_388
10
5.3343885
20
12.5894
11
4.6720757
21
13.6031993
0
LINE
8
DEFAULT_255_1_388
10
4.6720757
20
13.6031993
11
4.6720757
21
12.5894
0
LINE
8
DEFAULT_255_1_388
10
4.6720757
20
12.5894
11
4.4976878
21
12.5894
0
LINE
8
DEFAULT_255_1_388
10
4.4976878
20
12.5894
11
4.4976878
21
13.9049898
0
LINE
8
DEFAULT_255_1_388
10
4.4976878
20
13.9049898
11
4.6720757
21
13.9049898
0
LINE
8
DEFAULT_255_1_388
10
4.6720757
20
13.9049898
11
5.3361956
21
12.8866727
0
LINE
8
DEFAULT_255_1_388
10
5.3361956
20
12.8866727
11
5.3361956
21
13.9049898
0
LINE
8
DEFAULT_255_1_388
10
5.3361956
20
13.9049898
11
5.5087764
21
13.9049898
0
LINE
8
DEFAULT_255_1_388
10
6.4792046
20
13.9049898
11
6.4792046
21
13.031243
0
LINE
8
DEFAULT_255_1_388
10
6.4792046
20
13.031243
11
6.6617247
21
13.031243
0
LINE
8
DEFAULT_255_1_388
10
6.6617247
20
13.031243
11
6.6617247
21
12.8948048
0
LINE
8
DEFAULT_255_1_388
10
6.6617247
20
12.8948048
11
6.4792046
21
12.8948048
0
LINE
8
DEFAULT_255_1_388
10
6.4792046
20
12.8948048
11
6.4792046
21
12.5894
0
LINE
8
DEFAULT_255_1_388
10
6.4792046
20
12.5894
11
6.3111417
21
12.5894
0
LINE
8
DEFAULT_255_1_388
10
6.3111417
20
12.5894
11
6.3111417
21
12.8948048
0
LINE
8
DEFAULT_255_1_388
10
6.3111417
20
12.8948048
11
5.7120784
21
12.8948048
0
LINE
8
DEFAULT_255_1_388
10
5.7120784
20
12.8948048
11
5.7120784
21
12.9932933
0
LINE
8
DEFAULT_255_1_388
10
5.7120784
20
12.9932933
11
6.3012024
21
13.9049898
0
LINE
8
DEFAULT_255_1_388
10
6.3012024
20
13.9049898
11
6.4792046
21
13.9049898
0
LINE
8
DEFAULT_255_1_388
10
6.2912632
20
13.6402455
11
5.901827
21
13.031243
0
LINE
8
DEFAULT_255_1_388
10
5.901827
20
13.031243
11
6.3111417
21
13.031243
0
LINE
8
DEFAULT_255_1_388
10
6.3111417
20
13.031243
11
6.3111417
21
13.676388
0
LINE
8
DEFAULT_255_1_388
10
6.3111417
20
13.676388
11
6.2912632
21
13.6402455
0
LINE
8
DEFAULT_255_1_388
10
7.3086768
20
13.6790987
11
7.3086768
21
13.2950838
0
LINE
8
DEFAULT_255_1_388
10
7.3086768
20
13.2950838
11
7.675524
21
13.2950838
0
LINE
8
DEFAULT_255_1_388
10
7.675524
20
13.2950838
11
7.675524
21
13.1369601
0
LINE
8
DEFAULT_255_1_388
10
7.675524
20
13.1369601
11
7.3086768
21
13.1369601
0
LINE
8
DEFAULT_255_1_388
10
7.3086768
20
13.1369601
11
7.3086768
21
12.7213204
0
LINE
8
DEFAULT_255_1_388
10
7.3086768
20
12.7213204
11
7.1406138
21
12.7213204
0
LINE
8
DEFAULT_255_1_388
10
7.1406138
20
12.7213204
11
7.1406138
21
13.1369601
0
LINE
8
DEFAULT_255_1_388
10
7.1406138
20
13.1369601
11
6.7737667
21
13.1369601
0
LINE
8
DEFAULT_255_1_388
10
6.7737667
20
13.1369601
11
6.7737667
21
13.2950838
0
LINE
8
DEFAULT_255_1_388
10
6.7737667
20
13.2950838
11
7.1406138
21
13.2950838
0
LINE
8
DEFAULT_255_1_388
10
7.1406138
20
13.2950838
11
7.1406138
21
13.6790987
0
LINE
8
DEFAULT_255_1_388
10
7.1406138
20
13.6790987
11
7.3086768
21
13.6790987
0
LINE
8
DEFAULT_255_1_388
10
4.3169367
20
21.8424898
11
4.3169367
21
20.5269
0
LINE
8
DEFAULT_255_1_388
10
4.3169367
20
20.5269
11
4.1434523
21
20.5269
0
LINE
8
DEFAULT_255_1_388
10
4.1434523
20
20.5269
11
4.1434523
21
21.8424898
0
LINE
8
DEFAULT_255_1_388
10
4.1434523
20
21.8424898
11
4.3169367
21
21.8424898
0
LINE
8
DEFAULT_255_1_388
10
5.6451764
20
21.8424898
11
5.6451764
21
20.5269
0
LINE
8
DEFAULT_255_1_388
10
5.6451764
20
20.5269
11
5.4707885
21
20.5269
0
LINE
8
DEFAULT_255_1_388
10
5.4707885
20
20.5269
11
4.8084757
21
21.5406993
0
LINE
8
DEFAULT_255_1_388
10
4.8084757
20
21.5406993
11
4.8084757
21
20.5269
0
LINE
8
DEFAULT_255_1_388
10
4.8084757
20
20.5269
11
4.6340878
21
20.5269
0
LINE
8
DEFAULT_255_1_388
10
4.6340878
20
20.5269
11
4.6340878
21
21.8424898
0
LINE
8
DEFAULT_255_1_388
10
4.6340878
20
21.8424898
11
4.8084757
21
21.8424898
0
LINE
8
DEFAULT_255_1_388
10
4.8084757
20
21.8424898
11
5.4725956
21
20.8241727
0
LINE
8
DEFAULT_255_1_388
10
5.4725956
20
20.8241727
11
5.4725956
21
21.8424898
0
LINE
8
DEFAULT_255_1_388
10
5.4725956
20
21.8424898
11
5.6451764
21
21.8424898
0
LINE
8
DEFAULT_255_1_388
10
6.1529796
20
21.1295775
11
6.1529796
21
21.2660157
0
LINE
8
DEFAULT_255_1_388
10
6.1529796
20
21.2660157
11
6.2785751
21
21.2660157
0
LINE
8
DEFAULT_255_1_388
10
6.0644303
20
21.4973282
11
5.8972709
21
21.4973282
0
LINE
8
DEFAULT_255_1_388
10
5.8855246
20
20.8738687
11
6.0535875
21
20.8738687
0
LINE
8
DEFAULT_255_1_388
10
6.2785751
20
21.1295775
11
6.1529796
21
21.1295775
0
ARC
8
DEFAULT_255_1_388
10
6.2752977
20
21.6476922
40
0.3816905
50
270.491971
51
281.8953028
0
ARC
8
DEFAULT_255_1_388
10
6.3024404
20
21.5237199
40
0.2547877
50
281.6690378
51
301.2943765
0
ARC
8
DEFAULT_255_1_388
10
6.3215856
20
21.4886926
40
0.2149197
50
301.7834992
51
311.754567
0
ARC
8
DEFAULT_255_1_388
10
6.3318897
20
21.477265
40
0.1995326
50
311.7325027
51
354.2803031
0
ARC
8
DEFAULT_255_1_388
10
6.2501313
20
21.491328
40
0.2823461
50
353.0941646
51
0.1174696
0
ARC
8
DEFAULT_255_1_388
10
6.1982871
20
21.4966874
40
0.3342238
50
359.1804452
51
15.0452323
0
ARC
8
DEFAULT_255_1_388
10
6.3496929
20
21.5408546
40
0.1765747
50
13.957816
51
77.6713812
0
ARC
8
DEFAULT_255_1_388
10
6.3062165
20
21.3850464
40
0.3381982
50
76.111571
51
90.7028736
0
ARC
8
DEFAULT_255_1_388
10
6.2995577
20
21.415825
40
0.3074046
50
89.5321574
51
103.5319393
0
ARC
8
DEFAULT_255_1_388
10
6.2769961
20
21.5057443
40
0.2147041
50
103.2930114
51
133.5619756
0
ARC
8
DEFAULT_255_1_388
10
6.2719902
20
21.5124351
40
0.2064084
50
133.8349761
51
173.5343225
0
ARC
8
DEFAULT_255_1_388
10
6.353356
20
21.4980144
40
0.2889266
50
172.5097183
51
180.1360699
0
ARC
8
DEFAULT_255_1_388
10
6.2463324
20
21.501888
40
0.3490913
50
155.3483706
51
180.7484035
0
ARC
8
DEFAULT_255_1_388
10
6.2408299
20
21.4986519
40
0.3454798
50
131.5745177
51
154.4799474
0
ARC
8
DEFAULT_255_1_388
10
6.2760582
20
21.4630422
40
0.3955058
50
96.9874487
51
131.9690874
0
ARC
8
DEFAULT_255_1_388
10
6.3007475
20
21.3229407
40
0.537622
50
89.8592909
51
97.7827481
0
ARC
8
DEFAULT_255_1_388
10
6.3061584
20
21.293436
40
0.5671399
50
78.3654493
51
90.4132586
0
ARC
8
DEFAULT_255_1_388
10
6.3464225
20
21.4800918
40
0.3762034
50
56.6229818
51
78.6387103
0
ARC
8
DEFAULT_255_1_388
10
6.3706054
20
21.5223846
40
0.3275964
50
47.0254604
51
56.085558
0
ARC
8
DEFAULT_255_1_388
10
6.3728305
20
21.5268189
40
0.3228382
50
10.9207523
51
46.777927
0
ARC
8
DEFAULT_255_1_388
10
6.2193899
20
21.4913401
40
0.4802559
50
359.6364235
51
11.6087615
0
ARC
8
DEFAULT_255_1_388
10
6.4258065
20
21.4896404
40
0.273833
50
332.3549969
51
359.7179765
0
ARC
8
DEFAULT_255_1_388
10
6.3526465
20
21.5243285
40
0.3547505
50
325.2332381
51
332.8746682
0
ARC
8
DEFAULT_255_1_388
10
6.3698048
20
21.5123763
40
0.3338396
50
292.9803892
51
325.2391113
0
ARC
8
DEFAULT_255_1_388
10
6.3387244
20
21.5728679
40
0.4016959
50
292.542178
51
293.6931461
0
ARC
8
DEFAULT_255_1_388
10
6.3830816
20
20.8463036
40
0.372079
50
57.643292
51
72.8626085
0
ARC
8
DEFAULT_255_1_388
10
6.422965
20
20.9109273
40
0.2961455
50
36.7246661
51
57.4701329
0
ARC
8
DEFAULT_255_1_388
10
6.4216807
20
20.912347
40
0.2963321
50
8.054535
51
36.3561529
0
ARC
8
DEFAULT_255_1_388
10
6.324648
20
20.8949073
40
0.3948682
50
359.8316595
51
8.5873361
0
ARC
8
DEFAULT_255_1_388
10
6.2823954
20
20.889497
40
0.4371398
50
343.9831631
51
0.557075
0
ARC
8
DEFAULT_255_1_388
10
6.3821004
20
20.8621963
40
0.3337749
50
311.6358204
51
343.7652116
0
ARC
8
DEFAULT_255_1_388
10
6.3395257
20
20.9101955
40
0.3979351
50
279.7829743
51
311.625622
0
ARC
8
DEFAULT_255_1_388
10
6.3056392
20
21.0718642
40
0.5630417
50
269.7285092
51
280.3857694
0
ARC
8
DEFAULT_255_1_388
10
6.2986705
20
21.0672241
40
0.5584119
50
256.6827433
51
270.4412869
0
ARC
8
DEFAULT_255_1_388
10
6.2605692
20
20.9114698
40
0.3980715
50
229.4223821
51
256.8554507
0
ARC
8
DEFAULT_255_1_388
10
6.2139245
20
20.8589683
40
0.3278564
50
181.8183354
51
229.6455015
0
ARC
8
DEFAULT_255_1_388
10
6.3308855
20
20.8736825
40
0.4453611
50
179.9760419
51
183.2330638
0
ARC
8
DEFAULT_255_1_388
10
6.3115407
20
20.8713781
40
0.2579652
50
179.4467996
51
196.2871626
0
ARC
8
DEFAULT_255_1_388
10
6.2566861
20
20.8563709
40
0.2011057
50
196.5661293
51
227.7059371
0
ARC
8
DEFAULT_255_1_388
10
6.2751468
20
20.8770155
40
0.2287994
50
227.7653015
51
257.8763321
0
ARC
8
DEFAULT_255_1_388
10
6.3004551
20
20.9830961
40
0.3378385
50
257.4583525
51
270.4267406
0
ARC
8
DEFAULT_255_1_388
10
6.3055801
20
21.015723
40
0.3704652
50
269.5965319
51
280.8788143
0
ARC
8
DEFAULT_255_1_388
10
6.3314029
20
20.8867529
40
0.2389415
50
280.6347277
51
299.8594068
0
ARC
8
DEFAULT_255_1_388
10
6.3528798
20
20.8459736
40
0.19289
50
300.3575552
51
314.5515667
0
ARC
8
DEFAULT_255_1_388
10
6.3435474
20
20.8528025
40
0.204312
50
315.0730962
51
345.0429362
0
ARC
8
DEFAULT_255_1_388
10
6.2396982
20
20.8830539
40
0.31246
50
344.598526
51
357.9270698
0
ARC
8
DEFAULT_255_1_388
10
6.1387286
20
20.8899705
40
0.4136265
50
357.4755098
51
0.0224936
0
ARC
8
DEFAULT_255_1_388
10
6.2540164
20
20.8927099
40
0.2983498
50
359.5051035
51
13.4236939
0
ARC
8
DEFAULT_255_1_388
10
6.3515254
20
20.9176637
40
0.1977186
50
12.9497905
51
48.7550905
0
ARC
8
DEFAULT_255_1_388
10
6.3310176
20
20.8896373
40
0.2323321
50
49.509109
51
72.1832965
0
ARC
8
DEFAULT_255_1_388
10
6.2907644
20
20.7701632
40
0.358397
50
71.9008458
51
84.3555134
0
ARC
8
DEFAULT_255_1_388
10
6.2726039
20
20.6169712
40
0.512641
50
84.019632
51
89.3326067
0
LINE
8
DEFAULT_255_1_388
10
7.31406
20
21.1539737
11
7.31406
21
21.0175355
0
LINE
8
DEFAULT_255_1_388
10
7.31406
20
21.0175355
11
6.8731205
21
21.0175355
0
LINE
8
DEFAULT_255_1_388
10
6.8731205
20
21.0175355
11
6.8731205
21
21.1539737
0
LINE
8
DEFAULT_255_1_388
10
6.8731205
20
21.1539737
11
7.31406
21
21.1539737
0
LINE
8
DEFAULT_255_1_388
10
4.1805367
20
29.7799898
11
4.1805367
21
28.4644
0
LINE
8
DEFAULT_255_1_388
10
4.1805367
20
28.4644
11
4.0070523
21
28.4644
0
LINE
8
DEFAULT_255_1_388
10
4.0070523
20
28.4644
11
4.0070523
21
29.7799898
0
LINE
8
DEFAULT_255_1_388
10
4.0070523
20
29.7799898
11
4.1805367
21
29.7799898
0
LINE
8
DEFAULT_255_1_388
10
5.5087764
20
29.7799898
11
5.5087764
21
28.4644
0
LINE
8
DEFAULT_255_1_388
10
5.5087764
20
28.4644
11
5.3343885
21
28.4644
0
LINE
8
DEFAULT_255_1_388
10
5.3343885
20
28.4644
11
4.6720757
21
29.4781993
0
LINE
8
DEFAULT_255_1_388
10
4.6720757
20
29.4781993
11
4.6720757
21
28.4644
0
LINE
8
DEFAULT_255_1_388
10
4.6720757
20
28.4644
11
4.4976878
21
28.4644
0
LINE
8
DEFAULT_255_1_388
10
4.4976878
20
28.4644
11
4.4976878
21
29.7799898
0
LINE
8
DEFAULT_255_1_388
10
4.4976878
20
29.7799898
11
4.6720757
21
29.7799898
0
LINE
8
DEFAULT_255_1_388
10
4.6720757
20
29.7799898
11
5.3361956
21
28.7616727
0
LINE
8
DEFAULT_255_1_388
10
5.3361956
20
28.7616727
11
5.3361956
21
29.7799898
0
LINE
8
DEFAULT_255_1_388
10
5.3361956
20
29.7799898
11
5.5087764
21
29.7799898
0
LINE
8
DEFAULT_255_1_388
10
6.0165796
20
29.0670775
11
6.0165796
21
29.2035157
0
LINE
8
DEFAULT_255_1_388
10
6.0165796
20
29.2035157
11
6.1421751
21
29.2035157
0
LINE
8
DEFAULT_255_1_388
10
5.9280303
20
29.4348282
11
5.7608709
21
29.4348282
0
LINE
8
DEFAULT_255_1_388
10
5.7491246
20
28.8113687
11
5.9171875
21
28.8113687
0
LINE
8
DEFAULT_255_1_388
10
6.1421751
20
29.0670775
11
6.0165796
21
29.0670775
0
ARC
8
DEFAULT_255_1_388
10
6.1388977
20
29.5851922
40
0.3816905
50
270.491971
51
281.8953028
0
ARC
8
DEFAULT_255_1_388
10
6.1660404
20
29.4612199
40
0.2547877
50
281.6690378
51
301.2943765
0
ARC
8
DEFAULT_255_1_388
10
6.1851856
20
29.4261926
40
0.2149197
50
301.7834992
51
311.754567
0
ARC
8
DEFAULT_255_1_388
10
6.1954897
20
29.414765
40
0.1995326
50
311.7325027
51
354.2803031
0
ARC
8
DEFAULT_255_1_388
10
6.1137313
20
29.428828
40
0.2823461
50
353.0941646
51
0.1174696
0
ARC
8
DEFAULT_255_1_388
10
6.0618871
20
29.4341874
40
0.3342238
50
359.1804452
51
15.0452323
0
ARC
8
DEFAULT_255_1_388
10
6.2132929
20
29.4783546
40
0.1765747
50
13.957816
51
77.6713812
0
ARC
8
DEFAULT_255_1_388
10
6.1698165
20
29.3225464
40
0.3381982
50
76.111571
51
90.7028736
0
ARC
8
DEFAULT_255_1_388
10
6.1631577
20
29.353325
40
0.3074046
50
89.5321574
51
103.5319393
0
ARC
8
DEFAULT_255_1_388
10
6.1405961
20
29.4432443
40
0.2147041
50
103.2930114
51
133.5619756
0
ARC
8
DEFAULT_255_1_388
10
6.1355902
20
29.4499351
40
0.2064084
50
133.8349761
51
173.5343225
0
ARC
8
DEFAULT_255_1_388
10
6.216956
20
29.4355144
40
0.2889266
50
172.5097183
51
180.1360699
0
ARC
8
DEFAULT_255_1_388
10
6.1099324
20
29.439388
40
0.3490913
50
155.3483706
51
180.7484035
0
ARC
8
DEFAULT_255_1_388
10
6.1044299
20
29.4361519
40
0.3454798
50
131.5745177
51
154.4799474
0
ARC
8
DEFAULT_255_1_388
10
6.1396582
20
29.4005422
40
0.3955058
50
96.9874487
51
131.9690874
0
ARC
8
DEFAULT_255_1_388
10
6.1643475
20
29.2604407
40
0.537622
50
89.8592909
51
97.7827481
0
ARC
8
DEFAULT_255_1_388
10
6.1697584
20
29.230936
40
0.5671399
50
78.3654493
51
90.4132586
0
ARC
8
DEFAULT_255_1_388
10
6.2100225
20
29.4175918
40
0.3762034
50
56.6229818
51
78.6387103
0
ARC
8
DEFAULT_255_1_388
10
6.2342054
20
29.4598846
40
0.3275964
50
47.0254604
51
56.085558
0
ARC
8
DEFAULT_255_1_388
10
6.2364305
20
29.4643189
40
0.3228382
50
10.9207523
51
46.777927
0
ARC
8
DEFAULT_255_1_388
10
6.0829899
20
29.4288401
40
0.4802559
50
359.6364235
51
11.6087615
0
ARC
8
DEFAULT_255_1_388
10
6.2894065
20
29.4271404
40
0.273833
50
332.3549969
51
359.7179765
0
ARC
8
DEFAULT_255_1_388
10
6.2162465
20
29.4618285
40
0.3547505
50
325.2332381
51
332.8746682
0
ARC
8
DEFAULT_255_1_388
10
6.2334048
20
29.4498763
40
0.3338396
50
292.9803892
51
325.2391113
0
ARC
8
DEFAULT_255_1_388
10
6.2023244
20
29.5103679
40
0.4016959
50
292.542178
51
293.6931461
0
ARC
8
DEFAULT_255_1_388
10
6.2466816
20
28.7838036
40
0.372079
50
57.643292
51
72.8626085
0
ARC
8
DEFAULT_255_1_388
10
6.286565
20
28.8484273
40
0.2961455
50
36.7246661
51
57.4701329
0
ARC
8
DEFAULT_255_1_388
10
6.2852807
20
28.849847
40
0.2963321
50
8.054535
51
36.3561529
0
ARC
8
DEFAULT_255_1_388
10
6.188248
20
28.8324073
40
0.3948682
50
359.8316595
51
8.5873361
0
ARC
8
DEFAULT_255_1_388
10
6.1459954
20
28.826997
40
0.4371398
50
343.9831631
51
0.557075
0
ARC
8
DEFAULT_255_1_388
10
6.2457004
20
28.7996963
40
0.3337749
50
311.6358204
51
343.7652116
0
ARC
8
DEFAULT_255_1_388
10
6.2031257
20
28.8476955
40
0.3979351
50
279.7829743
51
311.625622
0
ARC
8
DEFAULT_255_1_388
10
6.1692392
20
29.0093642
40
0.5630417
50
269.7285092
51
280.3857694
0
ARC
8
DEFAULT_255_1_388
10
6.1622705
20
29.0047241
40
0.5584119
50
256.6827433
51
270.4412869
0
ARC
8
DEFAULT_255_1_388
10
6.1241692
20
28.8489698
40
0.3980715
50
229.4223821
51
256.8554507
0
ARC
8
DEFAULT_255_1_388
10
6.0775245
20
28.7964683
40
0.3278564
50
181.8183354
51
229.6455015
0
ARC
8
DEFAULT_255_1_388
10
6.1944855
20
28.8111825
40
0.4453611
50
179.9760419
51
183.2330638
0
ARC
8
DEFAULT_255_1_388
10
6.1751407
20
28.8088781
40
0.2579652
50
179.4467996
51
196.2871626
0
ARC
8
DEFAULT_255_1_388
10
6.1202861
20
28.7938709
40
0.2011057
50
196.5661293
51
227.7059371
0
ARC
8
DEFAULT_255_1_388
10
6.1387468
20
28.8145155
40
0.2287994
50
227.7653015
51
257.8763321
0
ARC
8
DEFAULT_255_1_388
10
6.1640551
20
28.9205961
40
0.3378385
50
257.4583525
51
270.4267406
0
ARC
8
DEFAULT_255_1_388
10
6.1691801
20
28.953223
40
0.3704652
50
269.5965319
51
280.8788143
0
ARC
8
DEFAULT_255_1_388
10
6.1950029
20
28.8242529
40
0.2389415
50
280.6347277
51
299.8594068
0
ARC
8
DEFAULT_255_1_388
10
6.2164798
20
28.7834736
40
0.19289
50
300.3575552
51
314.5515667
0
ARC
8
DEFAULT_255_1_388
10
6.2071474
20
28.7903025
40
0.204312
50
315.0730962
51
345.0429362
0
ARC
8
DEFAULT_255_1_388
10
6.1032982
20
28.8205539
40
0.31246
50
344.598526
51
357.9270698
0
ARC
8
DEFAULT_255_1_388
10
6.0023286
20
28.8274705
40
0.4136265
50
357.4755098
51
0.0224936
0
ARC
8
DEFAULT_255_1_388
10
6.1176164
20
28.8302099
40
0.2983498
50
359.5051035
51
13.4236939
0
ARC
8
DEFAULT_255_1_388
10
6.2151254
20
28.8551637
40
0.1977186
50
12.9497905
51
48.7550905
0
ARC
8
DEFAULT_255_1_388
10
6.1946176
20
28.8271373
40
0.2323321
50
49.509109
51
72.1832965
0
ARC
8
DEFAULT_255_1_388
10
6.1543644
20
28.7076632
40
0.358397
50
71.9008458
51
84.3555134
0
ARC
8
DEFAULT_255_1_388
10
6.1362039
20
28.5544712
40
0.512641
50
84.019632
51
89.3326067
0
LINE
8
DEFAULT_255_1_388
10
7.3086768
20
29.5540987
11
7.3086768
21
29.1700838
0
LINE
8
DEFAULT_255_1_388
10
7.3086768
20
29.1700838
11
7.675524
21
29.1700838
0
LINE
8
DEFAULT_255_1_388
10
7.675524
20
29.1700838
11
7.675524
21
29.0119601
0
LINE
8
DEFAULT_255_1_388
10
7.675524
20
29.0119601
11
7.3086768
21
29.0119601
0
LINE
8
DEFAULT_255_1_388
10
7.3086768
20
29.0119601
11
7.3086768
21
28.5963204
0
LINE
8
DEFAULT_255_1_388
10
7.3086768
20
28.5963204
11
7.1406138
21
28.5963204
0
LINE
8
DEFAULT_255_1_388
10
7.1406138
20
28.5963204
11
7.1406138
21
29.0119601
0
LINE
8
DEFAULT_255_1_388
10
7.1406138
20
29.0119601
11
6.7737667
21
29.0119601
0
LINE
8
DEFAULT_255_1_388
10
6.7737667
20
29.0119601
11
6.7737667
21
29.1700838
0
LINE
8
DEFAULT_255_1_388
10
6.7737667
20
29.1700838
11
7.1406138
21
29.1700838
0
LINE
8
DEFAULT_255_1_388
10
7.1406138
20
29.1700838
11
7.1406138
21
29.5540987
0
LINE
8
DEFAULT_255_1_388
10
7.1406138
20
29.5540987
11
7.3086768
21
29.5540987
0
LINE
8
DEFAULT_255_1_388
10
4.3169367
20
37.7174898
11
4.3169367
21
36.4019
0
LINE
8
DEFAULT_255_1_388
10
4.3169367
20
36.4019
11
4.1434523
21
36.4019
0
LINE
8
DEFAULT_255_1_388
10
4.1434523
20
36.4019
11
4.1434523
21
37.7174898
0
LINE
8
DEFAULT_255_1_388
10
4.1434523
20
37.7174898
11
4.3169367
21
37.7174898
0
LINE
8
DEFAULT_255_1_388
10
5.6451764
20
37.7174898
11
5.6451764
21
36.4019
0
LINE
8
DEFAULT_255_1_388
10
5.6451764
20
36.4019
11
5.4707885
21
36.4019
0
LINE
8
DEFAULT_255_1_388
10
5.4707885
20
36.4019
11
4.8084757
21
37.4156993
0
LINE
8
DEFAULT_255_1_388
10
4.8084757
20
37.4156993
11
4.8084757
21
36.4019
0
LINE
8
DEFAULT_255_1_388
10
4.8084757
20
36.4019
11
4.6340878
21
36.4019
0
LINE
8
DEFAULT_255_1_388
10
4.6340878
20
36.4019
11
4.6340878
21
37.7174898
0
LINE
8
DEFAULT_255_1_388
10
4.6340878
20
37.7174898
11
4.8084757
21
37.7174898
0
LINE
8
DEFAULT_255_1_388
10
4.8084757
20
37.7174898
11
5.4725956
21
36.6991727
0
LINE
8
DEFAULT_255_1_388
10
5.4725956
20
36.6991727
11
5.4725956
21
37.7174898
0
LINE
8
DEFAULT_255_1_388
10
5.4725956
20
37.7174898
11
5.6451764
21
37.7174898
0
LINE
8
DEFAULT_255_1_388
10
6.7719213
20
36.5383382
11
6.7719213
21
36.4019
0
LINE
8
DEFAULT_255_1_388
10
6.7719213
20
36.4019
11
5.9099208
21
36.4019
0
LINE
8
DEFAULT_255_1_388
10
5.9099208
20
36.4019
11
5.9099208
21
36.5220741
0
LINE
8
DEFAULT_255_1_388
10
5.9099208
20
36.5220741
11
6.3653173
21
37.0280702
0
LINE
8
DEFAULT_255_1_388
10
6.0517804
20
37.3298607
11
5.884621
21
37.3298607
0
LINE
8
DEFAULT_255_1_388
10
6.4638058
20
36.920546
11
6.1114157
21
36.5383382
0
LINE
8
DEFAULT_255_1_388
10
6.1114157
20
36.5383382
11
6.7719213
21
36.5383382
0
ARC
8
DEFAULT_255_1_388
10
4.8477232
20
38.3700983
40
2.0258655
50
318.5132526
51
320.7829045
0
ARC
8
DEFAULT_255_1_388
10
5.4425189
20
37.8859929
40
1.2589638
50
320.7372878
51
323.9739031
0
ARC
8
DEFAULT_255_1_388
10
5.8834121
20
37.5665554
40
0.7145141
50
323.8962701
51
328.64194
0
ARC
8
DEFAULT_255_1_388
10
6.1136379
20
37.4245545
40
0.4440242
50
328.8294576
51
331.7891185
0
ARC
8
DEFAULT_255_1_388
10
6.2258699
20
37.3666374
40
0.3177517
50
331.4254512
51
352.9365785
0
ARC
8
DEFAULT_255_1_388
10
6.2411699
20
37.363205
40
0.3021496
50
353.2257659
51
0.0166158
0
ARC
8
DEFAULT_255_1_388
10
6.2648459
20
37.3657894
40
0.2784847
50
359.486299
51
15.9343185
0
ARC
8
DEFAULT_255_1_388
10
6.3218726
20
37.3811269
40
0.2194403
50
16.1712913
51
43.5286088
0
ARC
8
DEFAULT_255_1_388
10
6.3305671
20
37.3898191
40
0.2071504
50
43.4417391
51
83.1661095
0
ARC
8
DEFAULT_255_1_388
10
6.3154832
20
37.3069316
40
0.2912888
50
82.160179
51
90.1505708
0
ARC
8
DEFAULT_255_1_388
10
6.3119313
20
37.2465279
40
0.3517025
50
89.5460741
51
102.5418361
0
ARC
8
DEFAULT_255_1_388
10
6.2846033
20
37.3624933
40
0.2325748
50
102.1738499
51
129.206123
0
ARC
8
DEFAULT_255_1_388
10
6.2757487
20
37.3764664
40
0.2161591
50
129.72865
51
135.753947
0
ARC
8
DEFAULT_255_1_388
10
6.2893969
20
37.3655728
40
0.2335433
50
136.1757367
51
166.3673339
0
ARC
8
DEFAULT_255_1_388
10
6.4026657
20
37.3352148
40
0.3507873
50
165.9090694
51
178.8684636
0
ARC
8
DEFAULT_255_1_388
10
6.5002429
20
37.3299263
40
0.4484624
50
178.4391136
51
180.0083808
0
ARC
8
DEFAULT_255_1_388
10
6.342313
20
37.3343197
40
0.4577138
50
163.2878482
51
180.5581842
0
ARC
8
DEFAULT_255_1_388
10
6.2521171
20
37.3591393
40
0.3641968
50
133.4540601
51
162.947111
0
ARC
8
DEFAULT_255_1_388
10
6.2722053
20
37.3377789
40
0.3935189
50
100.7869829
51
133.4382499
0
ARC
8
DEFAULT_255_1_388
10
6.3113298
20
37.1635399
40
0.5720313
50
89.660664
51
101.3702276
0
ARC
8
DEFAULT_255_1_388
10
6.3187907
20
37.1704263
40
0.5651495
50
78.2172678
51
90.412935
0
ARC
8
DEFAULT_255_1_388
10
6.3587373
20
37.3531511
40
0.378122
50
55.9269121
51
78.4888449
0
ARC
8
DEFAULT_255_1_388
10
6.3808088
20
37.3912187
40
0.3342379
50
47.929771
51
55.4049217
0
ARC
8
DEFAULT_255_1_388
10
6.3922618
20
37.4028618
40
0.3179217
50
4.334829
51
48.0560205
0
ARC
8
DEFAULT_255_1_388
10
6.269042
20
37.3837487
40
0.442341
50
359.9251713
51
5.5971671
0
ARC
8
DEFAULT_255_1_388
10
6.3172575
20
37.3900728
40
0.3941854
50
337.8914027
51
358.9967534
0
ARC
8
DEFAULT_255_1_388
10
6.0120145
20
37.5078295
40
0.7213271
50
326.9132501
51
338.3508308
0
ARC
8
DEFAULT_255_1_388
10
5.5636257
20
37.7952105
40
1.2538973
50
319.6471833
51
327.0959558
0
ARC
8
DEFAULT_255_1_388
10
5.1322915
20
38.151005
40
1.8129975
50
317.2588228
51
319.9045804
0
LINE
8
DEFAULT_255_1_388
10
7.31406
20
37.0289737
11
7.31406
21
36.8925355
0
LINE
8
DEFAULT_255_1_388
10
7.31406
20
36.8925355
11
6.8731205
21
36.8925355
0
LINE
8
DEFAULT_255_1_388
10
6.8731205
20
36.8925355
11
6.8731205
21
37.0289737
0
LINE
8
DEFAULT_255_1_388
10
6.8731205
20
37.0289737
11
7.31406
21
37.0289737
0
LINE
8
DEFAULT_255_1_388
10
4.1805367
20
45.6549898
11
4.1805367
21
44.3394
0
LINE
8
DEFAULT_255_1_388
10
4.1805367
20
44.3394
11
4.0070523
21
44.3394
0
LINE
8
DEFAULT_255_1_388
10
4.0070523
20
44.3394
11
4.0070523
21
45.6549898
0
LINE
8
DEFAULT_255_1_388
10
4.0070523
20
45.6549898
11
4.1805367
21
45.6549898
0
LINE
8
DEFAULT_255_1_388
10
5.5087764
20
45.6549898
11
5.5087764
21
44.3394
0
LINE
8
DEFAULT_255_1_388
10
5.5087764
20
44.3394
11
5.3343885
21
44.3394
0
LINE
8
DEFAULT_255_1_388
10
5.3343885
20
44.3394
11
4.6720757
21
45.3531993
0
LINE
8
DEFAULT_255_1_388
10
4.6720757
20
45.3531993
11
4.6720757
21
44.3394
0
LINE
8
DEFAULT_255_1_388
10
4.6720757
20
44.3394
11
4.4976878
21
44.3394
0
LINE
8
DEFAULT_255_1_388
10
4.4976878
20
44.3394
11
4.4976878
21
45.6549898
0
LINE
8
DEFAULT_255_1_388
10
4.4976878
20
45.6549898
11
4.6720757
21
45.6549898
0
LINE
8
DEFAULT_255_1_388
10
4.6720757
20
45.6549898
11
5.3361956
21
44.6366727
0
LINE
8
DEFAULT_255_1_388
10
5.3361956
20
44.6366727
11
5.3361956
21
45.6549898
0
LINE
8
DEFAULT_255_1_388
10
5.3361956
20
45.6549898
11
5.5087764
21
45.6549898
0
LINE
8
DEFAULT_255_1_388
10
6.6355213
20
44.4758382
11
6.6355213
21
44.3394
0
LINE
8
DEFAULT_255_1_388
10
6.6355213
20
44.3394
11
5.7735208
21
44.3394
0
LINE
8
DEFAULT_255_1_388
10
5.7735208
20
44.3394
11
5.7735208
21
44.4595741
0
LINE
8
DEFAULT_255_1_388
10
5.7735208
20
44.4595741
11
6.2289173
21
44.9655702
0
LINE
8
DEFAULT_255_1_388
10
5.9153804
20
45.2673607
11
5.748221
21
45.2673607
0
LINE
8
DEFAULT_255_1_388
10
6.3274058
20
44.858046
11
5.9750157
21
44.4758382
0
LINE
8
DEFAULT_255_1_388
10
5.9750157
20
44.4758382
11
6.6355213
21
44.4758382
0
ARC
8
DEFAULT_255_1_388
10
4.7113232
20
46.3075983
40
2.0258655
50
318.5132526
51
320.7829045
0
ARC
8
DEFAULT_255_1_388
10
5.3061189
20
45.8234929
40
1.2589638
50
320.7372878
51
323.9739031
0
ARC
8
DEFAULT_255_1_388
10
5.7470121
20
45.5040554
40
0.7145141
50
323.8962701
51
328.64194
0
ARC
8
DEFAULT_255_1_388
10
5.9772379
20
45.3620545
40
0.4440242
50
328.8294576
51
331.7891185
0
ARC
8
DEFAULT_255_1_388
10
6.0894699
20
45.3041374
40
0.3177517
50
331.4254512
51
352.9365785
0
ARC
8
DEFAULT_255_1_388
10
6.1047699
20
45.300705
40
0.3021496
50
353.2257659
51
0.0166158
0
ARC
8
DEFAULT_255_1_388
10
6.1284459
20
45.3032894
40
0.2784847
50
359.486299
51
15.9343185
0
ARC
8
DEFAULT_255_1_388
10
6.1854726
20
45.3186269
40
0.2194403
50
16.1712913
51
43.5286088
0
ARC
8
DEFAULT_255_1_388
10
6.1941671
20
45.3273191
40
0.2071504
50
43.4417391
51
83.1661095
0
ARC
8
DEFAULT_255_1_388
10
6.1790832
20
45.2444316
40
0.2912888
50
82.160179
51
90.1505708
0
ARC
8
DEFAULT_255_1_388
10
6.1755313
20
45.1840279
40
0.3517025
50
89.5460741
51
102.5418361
0
ARC
8
DEFAULT_255_1_388
10
6.1482033
20
45.2999933
40
0.2325748
50
102.1738499
51
129.206123
0
ARC
8
DEFAULT_255_1_388
10
6.1393487
20
45.3139664
40
0.2161591
50
129.72865
51
135.753947
0
ARC
8
DEFAULT_255_1_388
10
6.1529969
20
45.3030728
40
0.2335433
50
136.1757367
51
166.3673339
0
ARC
8
DEFAULT_255_1_388
10
6.2662657
20
45.2727148
40
0.3507873
50
165.9090694
51
178.8684636
0
ARC
8
DEFAULT_255_1_388
10
6.3638429
20
45.2674263
40
0.4484624
50
178.4391136
51
180.0083808
0
ARC
8
DEFAULT_255_1_388
10
6.205913
20
45.2718197
40
0.4577138
50
163.2878482
51
180.5581842
0
ARC
8
DEFAULT_255_1_388
10
6.1157171
20
45.2966393
40
0.3641968
50
133.4540601
51
162.947111
0
ARC
8
DEFAULT_255_1_388
10
6.1358053
20
45.2752789
40
0.3935189
50
100.7869829
51
133.4382499
0
ARC
8
DEFAULT_255_1_388
10
6.1749298
20
45.1010399
40
0.5720313
50
89.660664
51
101.3702276
0
ARC
8
DEFAULT_255_1_388
10
6.1823907
20
45.1079263
40
0.5651495
50
78.2172678
51
90.412935
0
ARC
8
DEFAULT_255_1_388
10
6.2223373
20
45.2906511
40
0.378122
50
55.9269121
51
78.4888449
0
ARC
8
DEFAULT_255_1_388
10
6.2444088
20
45.3287187
40
0.3342379
50
47.929771
51
55.4049217
0
ARC
8
DEFAULT_255_1_388
10
6.2558618
20
45.3403618
40
0.3179217
50
4.334829
51
48.0560205
0
ARC
8
DEFAULT_255_1_388
10
6.132642
20
45.3212487
40
0.442341
50
359.9251713
51
5.5971671
0
ARC
8
DEFAULT_255_1_388
10
6.1808575
20
45.3275728
40
0.3941854
50
337.8914027
51
358.9967534
0
ARC
8
DEFAULT_255_1_388
10
5.8756145
20
45.4453295
40
0.7213271
50
326.9132501
51
338.3508308
0
ARC
8
DEFAULT_255_1_388
10
5.4272257
20
45.7327105
40
1.2538973
50
319.6471833
51
327.0959558
0
ARC
8
DEFAULT_255_1_388
10
4.9958915
20
46.088505
40
1.8129975
50
317.2588228
51
319.9045804
0
LINE
8
DEFAULT_255_1_388
10
7.3086768
20
45.4290987
11
7.3086768
21
45.0450838
0
LINE
8
DEFAULT_255_1_388
10
7.3086768
20
45.0450838
11
7.675524
21
45.0450838
0
LINE
8
DEFAULT_255_1_388
10
7.675524
20
45.0450838
11
7.675524
21
44.8869601
0
LINE
8
DEFAULT_255_1_388
10
7.675524
20
44.8869601
11
7.3086768
21
44.8869601
0
LINE
8
DEFAULT_255_1_388
10
7.3086768
20
44.8869601
11
7.3086768
21
44.4713204
0
LINE
8
DEFAULT_255_1_388
10
7.3086768
20
44.4713204
11
7.1406138
21
44.4713204
0
LINE
8
DEFAULT_255_1_388
10
7.1406138
20
44.4713204
11
7.1406138
21
44.8869601
0
LINE
8
DEFAULT_255_1_388
10
7.1406138
20
44.8869601
11
6.7737667
21
44.8869601
0
LINE
8
DEFAULT_255_1_388
10
6.7737667
20
44.8869601
11
6.7737667
21
45.0450838
0
LINE
8
DEFAULT_255_1_388
10
6.7737667
20
45.0450838
11
7.1406138
21
45.0450838
0
LINE
8
DEFAULT_255_1_388
10
7.1406138
20
45.0450838
11
7.1406138
21
45.4290987
0
LINE
8
DEFAULT_255_1_388
10
7.1406138
20
45.4290987
11
7.3086768
21
45.4290987
0
LINE
8
DEFAULT_255_1_388
10
4.3169367
20
53.5924898
11
4.3169367
21
52.2769
0
LINE
8
DEFAULT_255_1_388
10
4.3169367
20
52.2769
11
4.1434523
21
52.2769
0
LINE
8
DEFAULT_255_1_388
10
4.1434523
20
52.2769
11
4.1434523
21
53.5924898
0
LINE
8
DEFAULT_255_1_388
10
4.1434523
20
53.5924898
11
4.3169367
21
53.5924898
0
LINE
8
DEFAULT_255_1_388
10
5.6451764
20
53.5924898
11
5.6451764
21
52.2769
0
LINE
8
DEFAULT_255_1_388
10
5.6451764
20
52.2769
11
5.4707885
21
52.2769
0
LINE
8
DEFAULT_255_1_388
10
5.4707885
20
52.2769
11
4.8084757
21
53.2906993
0
LINE
8
DEFAULT_255_1_388
10
4.8084757
20
53.2906993
11
4.8084757
21
52.2769
0
LINE
8
DEFAULT_255_1_388
10
4.8084757
20
52.2769
11
4.6340878
21
52.2769
0
LINE
8
DEFAULT_255_1_388
10
4.6340878
20
52.2769
11
4.6340878
21
53.5924898
0
LINE
8
DEFAULT_255_1_388
10
4.6340878
20
53.5924898
11
4.8084757
21
53.5924898
0
LINE
8
DEFAULT_255_1_388
10
4.8084757
20
53.5924898
11
5.4725956
21
52.5741727
0
LINE
8
DEFAULT_255_1_388
10
5.4725956
20
52.5741727
11
5.4725956
21
53.5924898
0
LINE
8
DEFAULT_255_1_388
10
5.4725956
20
53.5924898
11
5.6451764
21
53.5924898
0
LINE
8
DEFAULT_255_1_388
10
6.459288
20
53.5988148
11
6.459288
21
52.2769
0
LINE
8
DEFAULT_255_1_388
10
6.459288
20
52.2769
11
6.291225
21
52.2769
0
LINE
8
DEFAULT_255_1_388
10
6.291225
20
52.2769
11
6.291225
21
53.390995
0
LINE
8
DEFAULT_255_1_388
10
6.291225
20
53.390995
11
5.9541955
21
53.2672066
0
LINE
8
DEFAULT_255_1_388
10
5.9541955
20
53.2672066
11
5.9541955
21
53.4190055
0
LINE
8
DEFAULT_255_1_388
10
5.9541955
20
53.4190055
11
6.4330846
21
53.5988148
0
LINE
8
DEFAULT_255_1_388
10
6.4330846
20
53.5988148
11
6.459288
21
53.5988148
0
LINE
8
DEFAULT_255_1_388
10
7.31406
20
52.9039737
11
7.31406
21
52.7675355
0
LINE
8
DEFAULT_255_1_388
10
7.31406
20
52.7675355
11
6.8731205
21
52.7675355
0
LINE
8
DEFAULT_255_1_388
10
6.8731205
20
52.7675355
11
6.8731205
21
52.9039737
0
LINE
8
DEFAULT_255_1_388
10
6.8731205
20
52.9039737
11
7.31406
21
52.9039737
0
LINE
8
DEFAULT_255_1_388
10
4.1805367
20
61.5299898
11
4.1805367
21
60.2144
0
LINE
8
DEFAULT_255_1_388
10
4.1805367
20
60.2144
11
4.0070523
21
60.2144
0
LINE
8
DEFAULT_255_1_388
10
4.0070523
20
60.2144
11
4.0070523
21
61.5299898
0
LINE
8
DEFAULT_255_1_388
10
4.0070523
20
61.5299898
11
4.1805367
21
61.5299898
0
LINE
8
DEFAULT_255_1_388
10
5.5087764
20
61.5299898
11
5.5087764
21
60.2144
0
LINE
8
DEFAULT_255_1_388
10
5.5087764
20
60.2144
11
5.3343885
21
60.2144
0
LINE
8
DEFAULT_255_1_388
10
5.3343885
20
60.2144
11
4.6720757
21
61.2281993
0
LINE
8
DEFAULT_255_1_388
10
4.6720757
20
61.2281993
11
4.6720757
21
60.2144
0
LINE
8
DEFAULT_255_1_388
10
4.6720757
20
60.2144
11
4.4976878
21
60.2144
0
LINE
8
DEFAULT_255_1_388
10
4.4976878
20
60.2144
11
4.4976878
21
61.5299898
0
LINE
8
DEFAULT_255_1_388
10
4.4976878
20
61.5299898
11
4.6720757
21
61.5299898
0
LINE
8
DEFAULT_255_1_388
10
4.6720757
20
61.5299898
11
5.3361956
21
60.5116727
0
LINE
8
DEFAULT_255_1_388
10
5.3361956
20
60.5116727
11
5.3361956
21
61.5299898
0
LINE
8
DEFAULT_255_1_388
10
5.3361956
20
61.5299898
11
5.5087764
21
61.5299898
0
LINE
8
DEFAULT_255_1_388
10
6.322888
20
61.5363148
11
6.322888
21
60.2144
0
LINE
8
DEFAULT_255_1_388
10
6.322888
20
60.2144
11
6.154825
21
60.2144
0
LINE
8
DEFAULT_255_1_388
10
6.154825
20
60.2144
11
6.154825
21
61.328495
0
LINE
8
DEFAULT_255_1_388
10
6.154825
20
61.328495
11
5.8177955
21
61.2047066
0
LINE
8
DEFAULT_255_1_388
10
5.8177955
20
61.2047066
11
5.8177955
21
61.3565055
0
LINE
8
DEFAULT_255_1_388
10
5.8177955
20
61.3565055
11
6.2966846
21
61.5363148
0
LINE
8
DEFAULT_255_1_388
10
6.2966846
20
61.5363148
11
6.322888
21
61.5363148
0
LINE
8
DEFAULT_255_1_388
10
7.3086768
20
61.3040987
11
7.3086768
21
60.9200838
0
LINE
8
DEFAULT_255_1_388
10
7.3086768
20
60.9200838
11
7.675524
21
60.9200838
0
LINE
8
DEFAULT_255_1_388
10
7.675524
20
60.9200838
11
7.675524
21
60.7619601
0
LINE
8
DEFAULT_255_1_388
10
7.675524
20
60.7619601
11
7.3086768
21
60.7619601
0
LINE
8
DEFAULT_255_1_388
10
7.3086768
20
60.7619601
11
7.3086768
21
60.3463204
0
LINE
8
DEFAULT_255_1_388
10
7.3086768
20
60.3463204
11
7.1406138
21
60.3463204
0
LINE
8
DEFAULT_255_1_388
10
7.1406138
20
60.3463204
11
7.1406138
21
60.7619601
0
LINE
8
DEFAULT_255_1_388
10
7.1406138
20
60.7619601
11
6.7737667
21
60.7619601
0
LINE
8
DEFAULT_255_1_388
10
6.7737667
20
60.7619601
11
6.7737667
21
60.9200838
0
LINE
8
DEFAULT_255_1_388
10
6.7737667
20
60.9200838
11
7.1406138
21
60.9200838
0
LINE
8
DEFAULT_255_1_388
10
7.1406138
20
60.9200838
11
7.1406138
21
61.3040987
0
LINE
8
DEFAULT_255_1_388
10
7.1406138
20
61.3040987
11
7.3086768
21
61.3040987
0
LINE
8
DEFAULT_255_1_388
10
4.924132
20
68.5693468
11
5.0985199
21
68.5693468
0
LINE
8
DEFAULT_255_1_388
10
4.0856242
20
68.7482525
11
4.0856242
21
68.8747516
0
LINE
8
DEFAULT_255_1_388
10
5.0985199
20
69.0446217
11
4.924132
21
69.0446217
0
LINE
8
DEFAULT_255_1_388
10
4.2600121
20
68.8702337
11
4.2600121
21
68.7428312
0
ARC
8
DEFAULT_255_1_388
10
4.4819433
20
68.6365329
40
0.6202263
50
340.1774904
51
353.7812217
0
ARC
8
DEFAULT_255_1_388
10
4.6587286
20
68.5706893
40
0.4315926
50
311.4560052
51
340.4420756
0
ARC
8
DEFAULT_255_1_388
10
4.6549826
20
68.5831665
40
0.4434573
50
282.4332229
51
310.7514507
0
ARC
8
DEFAULT_255_1_388
10
4.6055644
20
68.7873703
40
0.6535262
50
269.9358869
51
282.8096729
0
ARC
8
DEFAULT_255_1_388
10
4.5997583
20
68.9386329
40
0.8048043
50
269.9995752
51
270.3612856
0
ARC
8
DEFAULT_255_1_388
10
4.5938073
20
68.6587781
40
0.5249831
50
250.7885263
51
270.6488451
0
ARC
8
DEFAULT_255_1_388
10
4.5748898
20
68.5870853
40
0.4510942
50
219.3628377
51
250.0611024
0
ARC
8
DEFAULT_255_1_388
10
4.6681772
20
68.6663653
40
0.5735046
50
193.5480293
51
219.5755675
0
ARC
8
DEFAULT_255_1_388
10
4.9349981
20
68.735652
40
0.849146
50
181.1220183
51
193.8754971
0
ARC
8
DEFAULT_255_1_388
10
5.1673214
20
68.7480914
40
1.0816971
50
179.9914644
51
181.5398227
0
ARC
8
DEFAULT_255_1_388
10
4.9596525
20
68.8789586
40
0.8740384
50
169.5837606
51
180.275782
0
ARC
8
DEFAULT_255_1_388
10
4.7529873
20
68.9171439
40
0.6638751
50
155.0367033
51
169.6002779
0
ARC
8
DEFAULT_255_1_388
10
4.6252331
20
68.9787336
40
0.5220662
50
136.7831557
51
155.2472983
0
ARC
8
DEFAULT_255_1_388
10
4.5814122
20
69.0159577
40
0.4646502
50
121.7633063
51
136.4281161
0
ARC
8
DEFAULT_255_1_388
10
4.5965962
20
68.9879049
40
0.4964979
50
95.6460018
51
121.5489589
0
ARC
8
DEFAULT_255_1_388
10
4.6142936
20
68.8631704
40
0.6223912
50
89.9245727
51
96.1375919
0
ARC
8
DEFAULT_255_1_388
10
4.6199641
20
68.8765721
40
0.6090084
50
76.6779212
51
90.456405
0
ARC
8
DEFAULT_255_1_388
10
4.6642454
20
69.055506
40
0.42469
50
47.4858803
51
76.9287069
0
ARC
8
DEFAULT_255_1_388
10
4.6477068
20
69.0442623
40
0.4441778
50
16.5424081
51
46.8934505
0
ARC
8
DEFAULT_255_1_388
10
4.4668118
20
68.9848265
40
0.6345318
50
5.4072971
51
17.0363711
0
ARC
8
DEFAULT_255_1_388
10
4.3049843
20
68.9588304
40
0.6250632
50
7.8888693
51
15.9242022
0
ARC
8
DEFAULT_255_1_388
10
4.5284828
20
69.0237309
40
0.3923364
50
15.7650676
51
27.9410069
0
ARC
8
DEFAULT_255_1_388
10
4.6526997
20
69.0902317
40
0.2514401
50
27.8167196
51
46.4007942
0
ARC
8
DEFAULT_255_1_388
10
4.6582839
20
69.0895882
40
0.2480958
50
47.4372362
51
75.0695672
0
ARC
8
DEFAULT_255_1_388
10
4.6235675
20
68.9687277
40
0.3738281
50
74.7009379
51
87.8124314
0
ARC
8
DEFAULT_255_1_388
10
4.6153292
20
68.8503659
40
0.4924321
50
87.3802571
51
90.0251599
0
ARC
8
DEFAULT_255_1_388
10
4.6109939
20
68.9823997
40
0.3604218
50
89.3451886
51
108.5744412
0
ARC
8
DEFAULT_255_1_388
10
4.5955931
20
69.0401836
40
0.3007661
50
109.2998307
51
143.3037387
0
ARC
8
DEFAULT_255_1_388
10
4.6813221
20
68.9742584
40
0.4089031
50
143.075267
51
163.1918576
0
ARC
8
DEFAULT_255_1_388
10
4.9009055
20
68.9049652
40
0.6391492
50
162.9375929
51
174.6208776
0
ARC
8
DEFAULT_255_1_388
10
5.1963437
20
68.8725711
40
0.9363344
50
174.342123
51
180.1430283
0
ARC
8
DEFAULT_255_1_388
10
5.0915978
20
68.7382117
40
0.8315986
50
179.6817261
51
189.150555
0
ARC
8
DEFAULT_255_1_388
10
4.8102727
20
68.6913559
40
0.5464044
50
188.9911061
51
203.5772363
0
ARC
8
DEFAULT_255_1_388
10
4.6888019
20
68.6409539
40
0.4149206
50
203.9075402
51
215.1312435
0
ARC
8
DEFAULT_255_1_388
10
4.5849817
20
68.5604907
40
0.2837747
50
213.9071511
51
263.8848919
0
ARC
8
DEFAULT_255_1_388
10
4.599081
20
68.6487519
40
0.3730641
50
263.1757928
51
270.1031044
0
ARC
8
DEFAULT_255_1_388
10
4.602689
20
68.7890511
40
0.5133712
50
269.6722503
51
279.0606936
0
ARC
8
DEFAULT_255_1_388
10
4.6327045
20
68.607615
40
0.3294739
50
278.8749101
51
293.6349581
0
ARC
8
DEFAULT_255_1_388
10
4.6687249
20
68.5230251
40
0.2375405
50
293.8553806
51
310.0518171
0
ARC
8
DEFAULT_255_1_388
10
4.6692758
20
68.5160021
40
0.2318463
50
311.0644687
51
332.0111037
0
ARC
8
DEFAULT_255_1_388
10
4.5351431
20
68.5899702
40
0.3850112
50
331.6586806
51
343.2877423
0
ARC
8
DEFAULT_255_1_388
10
4.3030896
20
68.6612806
40
0.6277712
50
343.1446576
51
351.0103568
0
ARC
8
DEFAULT_255_1_388
10
4.139822
20
68.6912873
40
0.7937327
50
350.71248
51
351.1626997
0
LINE
8
DEFAULT_255_1_388
10
5.8864281
20
68.5332042
11
5.8864281
21
69.4674898
0
LINE
8
DEFAULT_255_1_388
10
5.8864281
20
69.4674898
11
6.0608161
21
69.4674898
0
LINE
8
DEFAULT_255_1_388
10
6.0608161
20
69.4674898
11
6.0608161
21
68.5359149
0
LINE
8
DEFAULT_255_1_388
10
5.2304403
20
68.5151329
11
5.4039247
21
68.5151329
0
ARC
8
DEFAULT_255_1_388
10
5.5555883
20
68.5315958
40
0.5052462
50
346.3132364
51
0.4897996
0
ARC
8
DEFAULT_255_1_388
10
5.7095416
20
68.4921792
40
0.3463431
50
313.3793278
51
346.6225662
0
ARC
8
DEFAULT_255_1_388
10
5.68695
20
68.5206186
40
0.3825426
50
281.1587645
51
312.9130978
0
ARC
8
DEFAULT_255_1_388
10
5.6486405
20
68.6887607
40
0.5549427
50
269.6423454
51
281.6796473
0
ARC
8
DEFAULT_255_1_388
10
5.6409184
20
68.7505499
40
0.6167359
50
258.9989698
51
270.3955842
0
ARC
8
DEFAULT_255_1_388
10
5.5987642
20
68.5425792
40
0.4045461
50
239.625581
51
259.2387746
0
ARC
8
DEFAULT_255_1_388
10
5.5662635
20
68.4812638
40
0.3352261
50
227.4961805
51
239.1189042
0
ARC
8
DEFAULT_255_1_388
10
5.5620519
20
68.4744009
40
0.3273245
50
191.3396895
51
227.2280349
0
ARC
8
DEFAULT_255_1_388
10
5.7200841
20
68.5117896
40
0.4896551
50
179.6087821
51
191.9932937
0
ARC
8
DEFAULT_255_1_388
10
5.7351585
20
68.5126216
40
0.3312434
50
179.565607
51
192.0702314
0
ARC
8
DEFAULT_255_1_388
10
5.6258538
20
68.488056
40
0.2192212
50
191.7655537
51
215.6462731
0
ARC
8
DEFAULT_255_1_388
10
5.6057779
20
68.4759629
40
0.1958682
50
216.1940686
51
224.3931249
0
ARC
8
DEFAULT_255_1_388
10
5.6065475
20
68.4789862
40
0.1985399
50
224.861176
51
254.3628599
0
ARC
8
DEFAULT_255_1_388
10
5.6370018
20
68.5796135
40
0.3036595
50
253.9470645
51
267.395327
0
ARC
8
DEFAULT_255_1_388
10
5.6449318
20
68.6835346
40
0.4078462
50
266.9458957
51
270.0343693
0
ARC
8
DEFAULT_255_1_388
10
5.6477898
20
68.5528844
40
0.2772084
50
269.4598277
51
286.1819188
0
ARC
8
DEFAULT_255_1_388
10
5.6636871
20
68.4945765
40
0.2167824
50
286.4415261
51
315.8045035
0
ARC
8
DEFAULT_255_1_388
10
5.6575904
20
68.4993201
40
0.2244619
50
316.0212602
51
345.479585
0
ARC
8
DEFAULT_255_1_388
10
5.5484062
20
68.5300753
40
0.3378781
50
345.0729937
51
358.3249855
0
ARC
8
DEFAULT_255_1_388
10
5.4508508
20
68.5363509
40
0.4355887
50
357.8749464
51
359.5860856
0
LINE
8
DEFAULT_255_1_388
10
6.6779506
20
68.7789737
11
6.6779506
21
68.6425355
0
LINE
8
DEFAULT_255_1_388
10
6.6779506
20
68.6425355
11
6.2370111
21
68.6425355
0
LINE
8
DEFAULT_255_1_388
10
6.2370111
20
68.6425355
11
6.2370111
21
68.7789737
0
LINE
8
DEFAULT_255_1_388
10
6.2370111
20
68.7789737
11
6.6779506
21
68.7789737
0
LINE
8
DEFAULT_255_1_388
10
4.787732
20
76.5068468
11
4.9621199
21
76.5068468
0
LINE
8
DEFAULT_255_1_388
10
3.9492242
20
76.6857525
11
3.9492242
21
76.8122516
0
LINE
8
DEFAULT_255_1_388
10
4.9621199
20
76.9821217
11
4.787732
21
76.9821217
0
LINE
8
DEFAULT_255_1_388
10
4.1236121
20
76.8077337
11
4.1236121
21
76.6803312
0
ARC
8
DEFAULT_255_1_388
10
4.3455433
20
76.5740329
40
0.6202263
50
340.1774904
51
353.7812217
0
ARC
8
DEFAULT_255_1_388
10
4.5223286
20
76.5081893
40
0.4315926
50
311.4560052
51
340.4420756
0
ARC
8
DEFAULT_255_1_388
10
4.5185826
20
76.5206665
40
0.4434573
50
282.4332229
51
310.7514507
0
ARC
8
DEFAULT_255_1_388
10
4.4691644
20
76.7248703
40
0.6535262
50
269.9358869
51
282.8096729
0
ARC
8
DEFAULT_255_1_388
10
4.4633583
20
76.8761329
40
0.8048043
50
269.9995752
51
270.3612856
0
ARC
8
DEFAULT_255_1_388
10
4.4574073
20
76.5962781
40
0.5249831
50
250.7885263
51
270.6488451
0
ARC
8
DEFAULT_255_1_388
10
4.4384898
20
76.5245853
40
0.4510942
50
219.3628377
51
250.0611024
0
ARC
8
DEFAULT_255_1_388
10
4.5317772
20
76.6038653
40
0.5735046
50
193.5480293
51
219.5755675
0
ARC
8
DEFAULT_255_1_388
10
4.7985981
20
76.673152
40
0.849146
50
181.1220183
51
193.8754971
0
ARC
8
DEFAULT_255_1_388
10
5.0309214
20
76.6855914
40
1.0816971
50
179.9914644
51
181.5398227
0
ARC
8
DEFAULT_255_1_388
10
4.8232525
20
76.8164586
40
0.8740384
50
169.5837606
51
180.275782
0
ARC
8
DEFAULT_255_1_388
10
4.6165873
20
76.8546439
40
0.6638751
50
155.0367033
51
169.6002779
0
ARC
8
DEFAULT_255_1_388
10
4.4888331
20
76.9162336
40
0.5220662
50
136.7831557
51
155.2472983
0
ARC
8
DEFAULT_255_1_388
10
4.4450122
20
76.9534577
40
0.4646502
50
121.7633063
51
136.4281161
0
ARC
8
DEFAULT_255_1_388
10
4.4601962
20
76.9254049
40
0.4964979
50
95.6460018
51
121.5489589
0
ARC
8
DEFAULT_255_1_388
10
4.4778936
20
76.8006704
40
0.6223912
50
89.9245727
51
96.1375919
0
ARC
8
DEFAULT_255_1_388
10
4.4835641
20
76.8140721
40
0.6090084
50
76.6779212
51
90.456405
0
ARC
8
DEFAULT_255_1_388
10
4.5278454
20
76.993006
40
0.42469
50
47.4858803
51
76.9287069
0
ARC
8
DEFAULT_255_1_388
10
4.5113068
20
76.9817623
40
0.4441778
50
16.5424081
51
46.8934505
0
ARC
8
DEFAULT_255_1_388
10
4.3304118
20
76.9223265
40
0.6345318
50
5.4072971
51
17.0363711
0
ARC
8
DEFAULT_255_1_388
10
4.1685843
20
76.8963304
40
0.6250632
50
7.8888693
51
15.9242022
0
ARC
8
DEFAULT_255_1_388
10
4.3920828
20
76.9612309
40
0.3923364
50
15.7650676
51
27.9410069
0
ARC
8
DEFAULT_255_1_388
10
4.5162997
20
77.0277317
40
0.2514401
50
27.8167196
51
46.4007942
0
ARC
8
DEFAULT_255_1_388
10
4.5218839
20
77.0270882
40
0.2480958
50
47.4372362
51
75.0695672
0
ARC
8
DEFAULT_255_1_388
10
4.4871675
20
76.9062277
40
0.3738281
50
74.7009379
51
87.8124314
0
ARC
8
DEFAULT_255_1_388
10
4.4789292
20
76.7878659
40
0.4924321
50
87.3802571
51
90.0251599
0
ARC
8
DEFAULT_255_1_388
10
4.4745939
20
76.9198997
40
0.3604218
50
89.3451886
51
108.5744412
0
ARC
8
DEFAULT_255_1_388
10
4.4591931
20
76.9776836
40
0.3007661
50
109.2998307
51
143.3037387
0
ARC
8
DEFAULT_255_1_388
10
4.5449221
20
76.9117584
40
0.4089031
50
143.075267
51
163.1918576
0
ARC
8
DEFAULT_255_1_388
10
4.7645055
20
76.8424652
40
0.6391492
50
162.9375929
51
174.6208776
0
ARC
8
DEFAULT_255_1_388
10
5.0599437
20
76.8100711
40
0.9363344
50
174.342123
51
180.1430283
0
ARC
8
DEFAULT_255_1_388
10
4.9551978
20
76.6757117
40
0.8315986
50
179.6817261
51
189.150555
0
ARC
8
DEFAULT_255_1_388
10
4.6738727
20
76.6288559
40
0.5464044
50
188.9911061
51
203.5772363
0
ARC
8
DEFAULT_255_1_388
10
4.5524019
20
76.5784539
40
0.4149206
50
203.9075402
51
215.1312435
0
ARC
8
DEFAULT_255_1_388
10
4.4485817
20
76.4979907
40
0.2837747
50
213.9071511
51
263.8848919
0
ARC
8
DEFAULT_255_1_388
10
4.462681
20
76.5862519
40
0.3730641
50
263.1757928
51
270.1031044
0
ARC
8
DEFAULT_255_1_388
10
4.466289
20
76.7265511
40
0.5133712
50
269.6722503
51
279.0606936
0
ARC
8
DEFAULT_255_1_388
10
4.4963045
20
76.545115
40
0.3294739
50
278.8749101
51
293.6349581
0
ARC
8
DEFAULT_255_1_388
10
4.5323249
20
76.4605251
40
0.2375405
50
293.8553806
51
310.0518171
0
ARC
8
DEFAULT_255_1_388
10
4.5328758
20
76.4535021
40
0.2318463
50
311.0644687
51
332.0111037
0
ARC
8
DEFAULT_255_1_388
10
4.3987431
20
76.5274702
40
0.3850112
50
331.6586806
51
343.2877423
0
ARC
8
DEFAULT_255_1_388
10
4.1666896
20
76.5987806
40
0.6277712
50
343.1446576
51
351.0103568
0
ARC
8
DEFAULT_255_1_388
10
4.003422
20
76.6287873
40
0.7937327
50
350.71248
51
351.1626997
0
LINE
8
DEFAULT_255_1_388
10
5.7500281
20
76.4707042
11
5.7500281
21
77.4049898
0
LINE
8
DEFAULT_255_1_388
10
5.7500281
20
77.4049898
11
5.9244161
21
77.4049898
0
LINE
8
DEFAULT_255_1_388
10
5.9244161
20
77.4049898
11
5.9244161
21
76.4734149
0
LINE
8
DEFAULT_255_1_388
10
5.0940403
20
76.4526329
11
5.2675247
21
76.4526329
0
ARC
8
DEFAULT_255_1_388
10
5.4191883
20
76.4690958
40
0.5052462
50
346.3132364
51
0.4897996
0
ARC
8
DEFAULT_255_1_388
10
5.5731416
20
76.4296792
40
0.3463431
50
313.3793278
51
346.6225662
0
ARC
8
DEFAULT_255_1_388
10
5.55055
20
76.4581186
40
0.3825426
50
281.1587645
51
312.9130978
0
ARC
8
DEFAULT_255_1_388
10
5.5122405
20
76.6262607
40
0.5549427
50
269.6423454
51
281.6796473
0
ARC
8
DEFAULT_255_1_388
10
5.5045184
20
76.6880499
40
0.6167359
50
258.9989698
51
270.3955842
0
ARC
8
DEFAULT_255_1_388
10
5.4623642
20
76.4800792
40
0.4045461
50
239.625581
51
259.2387746
0
ARC
8
DEFAULT_255_1_388
10
5.4298635
20
76.4187638
40
0.3352261
50
227.4961805
51
239.1189042
0
ARC
8
DEFAULT_255_1_388
10
5.4256519
20
76.4119009
40
0.3273245
50
191.3396895
51
227.2280349
0
ARC
8
DEFAULT_255_1_388
10
5.5836841
20
76.4492896
40
0.4896551
50
179.6087821
51
191.9932937
0
ARC
8
DEFAULT_255_1_388
10
5.5987585
20
76.4501216
40
0.3312434
50
179.565607
51
192.0702314
0
ARC
8
DEFAULT_255_1_388
10
5.4894538
20
76.425556
40
0.2192212
50
191.7655537
51
215.6462731
0
ARC
8
DEFAULT_255_1_388
10
5.4693779
20
76.4134629
40
0.1958682
50
216.1940686
51
224.3931249
0
ARC
8
DEFAULT_255_1_388
10
5.4701475
20
76.4164862
40
0.1985399
50
224.861176
51
254.3628599
0
ARC
8
DEFAULT_255_1_388
10
5.5006018
20
76.5171135
40
0.3036595
50
253.9470645
51
267.395327
0
ARC
8
DEFAULT_255_1_388
10
5.5085318
20
76.6210346
40
0.4078462
50
266.9458957
51
270.0343693
0
ARC
8
DEFAULT_255_1_388
10
5.5113898
20
76.4903844
40
0.2772084
50
269.4598277
51
286.1819188
0
ARC
8
DEFAULT_255_1_388
10
5.5272871
20
76.4320765
40
0.2167824
50
286.4415261
51
315.8045035
0
ARC
8
DEFAULT_255_1_388
10
5.5211904
20
76.4368201
40
0.2244619
50
316.0212602
51
345.479585
0
ARC
8
DEFAULT_255_1_388
10
5.4120062
20
76.4675753
40
0.3378781
50
345.0729937
51
358.3249855
0
ARC
8
DEFAULT_255_1_388
10
5.3144508
20
76.4738509
40
0.4355887
50
357.8749464
51
359.5860856
0
LINE
8
DEFAULT_255_1_388
10
6.6725674
20
77.1790987
11
6.6725674
21
76.7950838
0
LINE
8
DEFAULT_255_1_388
10
6.6725674
20
76.7950838
11
7.0394146
21
76.7950838
0
LINE
8
DEFAULT_255_1_388
10
7.0394146
20
76.7950838
11
7.0394146
21
76.6369601
0
LINE
8
DEFAULT_255_1_388
10
7.0394146
20
76.6369601
11
6.6725674
21
76.6369601
0
LINE
8
DEFAULT_255_1_388
10
6.6725674
20
76.6369601
11
6.6725674
21
76.2213204
0
LINE
8
DEFAULT_255_1_388
10
6.6725674
20
76.2213204
11
6.5045044
21
76.2213204
0
LINE
8
DEFAULT_255_1_388
10
6.5045044
20
76.2213204
11
6.5045044
21
76.6369601
0
LINE
8
DEFAULT_255_1_388
10
6.5045044
20
76.6369601
11
6.1376573
21
76.6369601
0
LINE
8
DEFAULT_255_1_388
10
6.1376573
20
76.6369601
11
6.1376573
21
76.7950838
0
LINE
8
DEFAULT_255_1_388
10
6.1376573
20
76.7950838
11
6.5045044
21
76.7950838
0
LINE
8
DEFAULT_255_1_388
10
6.5045044
20
76.7950838
11
6.5045044
21
77.1790987
0
LINE
8
DEFAULT_255_1_388
10
6.5045044
20
77.1790987
11
6.6725674
21
77.1790987
0
LINE
8
DEFAULT_255_1_388
10
23.1203856
20
84.804869
11
23.1203856
21
84.5880135
0
LINE
8
DEFAULT_255_1_388
10
22.2900099
20
84.5654244
11
22.2900099
21
84.7886048
0
LINE
8
DEFAULT_255_1_388
10
22.9532262
20
84.5428353
11
22.9532262
21
84.8166153
0
LINE
8
DEFAULT_255_1_388
10
22.4571693
20
84.8292652
11
22.4571693
21
84.5618102
0
ARC
8
DEFAULT_255_1_388
10
21.742619
20
84.5825118
40
1.3777776
50
353.8440855
51
0.2287917
0
ARC
8
DEFAULT_255_1_388
10
22.2645208
20
84.5242414
40
0.852639
50
344.4934746
51
353.9763743
0
ARC
8
DEFAULT_255_1_388
10
22.6012015
20
84.4285191
40
0.5026273
50
329.2803599
51
344.7473406
0
ARC
8
DEFAULT_255_1_388
10
22.7127511
20
84.3673038
40
0.3754848
50
324.9361395
51
328.6153007
0
ARC
8
DEFAULT_255_1_388
10
22.7553161
20
84.3375586
40
0.3235566
50
280.5801797
51
324.9173226
0
ARC
8
DEFAULT_255_1_388
10
22.7101789
20
84.5255236
40
0.5167077
50
269.5979457
51
281.6732777
0
ARC
8
DEFAULT_255_1_388
10
22.7020693
20
84.5120113
40
0.5032026
50
256.6228565
51
270.5105488
0
ARC
8
DEFAULT_255_1_388
10
22.6568435
20
84.3378345
40
0.3233092
50
215.8618351
51
257.2787793
0
ARC
8
DEFAULT_255_1_388
10
22.7717142
20
84.4149106
40
0.4615831
50
197.9695203
51
215.2622745
0
ARC
8
DEFAULT_255_1_388
10
23.0512818
20
84.5092641
40
0.7566307
50
187.8816486
51
198.2346584
0
ARC
8
DEFAULT_255_1_388
10
23.4966056
20
84.5735453
40
1.2065653
50
180.8977266
51
188.0054894
0
ARC
8
DEFAULT_255_1_388
10
23.801627
20
84.58504
40
1.5117443
50
180.7434591
51
181.152202
0
ARC
8
DEFAULT_255_1_388
10
23.6341266
20
84.7940371
40
1.3441277
50
173.7674302
51
180.2315596
0
ARC
8
DEFAULT_255_1_388
10
23.1259135
20
84.8514779
40
0.8326847
50
164.3058537
51
173.9000553
0
ARC
8
DEFAULT_255_1_388
10
22.7983135
20
84.9458652
40
0.4917711
50
148.7922028
51
164.5682288
0
ARC
8
DEFAULT_255_1_388
10
22.6913872
20
85.0055457
40
0.3694204
50
144.5883979
51
148.1161588
0
ARC
8
DEFAULT_255_1_388
10
22.6526618
20
85.0325667
40
0.322202
50
101.6440149
51
144.5142619
0
ARC
8
DEFAULT_255_1_388
10
22.700481
20
84.8425337
40
0.5180451
50
89.528284
51
102.5820197
0
ARC
8
DEFAULT_255_1_388
10
22.7093802
20
84.8381376
40
0.5224441
50
77.0437914
51
90.508231
0
ARC
8
DEFAULT_255_1_388
10
22.7546055
20
85.0229272
40
0.3322297
50
48.2777708
51
77.4996087
0
ARC
8
DEFAULT_255_1_388
10
22.7627795
20
85.0374557
40
0.315966
50
36.3141586
51
47.6307332
0
ARC
8
DEFAULT_255_1_388
10
22.6650518
20
84.9716159
40
0.4337313
50
18.2931065
51
35.6770203
0
ARC
8
DEFAULT_255_1_388
10
22.3789358
20
84.8734107
40
0.7362203
50
8.0246996
51
18.5605636
0
ARC
8
DEFAULT_255_1_388
10
21.9105714
20
84.8042432
40
1.2096583
50
1.127539
51
8.1718423
0
ARC
8
DEFAULT_255_1_388
10
21.5456847
20
84.7899374
40
1.5747719
50
0.5432713
51
1.38669
0
ARC
8
DEFAULT_255_1_388
10
21.7514226
20
84.8206163
40
1.2018103
50
359.8092569
51
4.9408001
0
ARC
8
DEFAULT_255_1_388
10
22.2250807
20
84.86289
40
0.7262727
50
4.8364937
51
12.2906017
0
ARC
8
DEFAULT_255_1_388
10
22.5350272
20
84.9319485
40
0.4087324
50
12.0806994
51
23.8171225
0
ARC
8
DEFAULT_255_1_388
10
22.6670668
20
84.9878508
40
0.2653719
50
24.2874621
51
31.3934353
0
ARC
8
DEFAULT_255_1_388
10
22.7261104
20
85.0264822
40
0.1948607
50
30.7407708
51
82.4658033
0
ARC
8
DEFAULT_255_1_388
10
22.7058765
20
84.9271017
40
0.2961198
50
81.1057101
51
90.2187368
0
ARC
8
DEFAULT_255_1_388
10
22.7018577
20
84.9561421
40
0.2670929
50
89.380395
51
105.6763916
0
ARC
8
DEFAULT_255_1_388
10
22.6812299
20
85.031132
40
0.1893189
50
105.7980655
51
149.7387869
0
ARC
8
DEFAULT_255_1_388
10
22.8009439
20
84.9591719
40
0.3289892
50
149.4208441
51
163.628295
0
ARC
8
DEFAULT_255_1_388
10
23.0361668
20
84.8874345
40
0.5749004
50
163.3764549
51
172.141138
0
ARC
8
DEFAULT_255_1_388
10
23.407439
20
84.8342582
40
0.9499585
50
172.0258462
51
178.0705453
0
ARC
8
DEFAULT_255_1_388
10
23.7495943
20
84.8180682
40
1.2924734
50
177.8639301
51
179.5036263
0
ARC
8
DEFAULT_255_1_388
10
23.6276961
20
84.5577151
40
1.170534
50
179.7995545
51
185.246089
0
ARC
8
DEFAULT_255_1_388
10
23.1728554
20
84.5146404
40
0.7136613
50
185.1411911
51
193.0082205
0
ARC
8
DEFAULT_255_1_388
10
22.8754815
20
84.4443441
40
0.4080987
50
192.7897338
51
205.2507384
0
ARC
8
DEFAULT_255_1_388
10
22.7577025
20
84.3917538
40
0.2791522
50
205.8001921
51
211.2545876
0
ARC
8
DEFAULT_255_1_388
10
22.6988564
20
84.3523132
40
0.2084074
50
210.3789935
51
238.4007996
0
ARC
8
DEFAULT_255_1_388
10
22.696665
20
84.3575786
40
0.2117943
50
239.6521916
51
265.9793852
0
ARC
8
DEFAULT_255_1_388
10
22.7062499
20
84.4332358
40
0.2879689
50
265.1324455
51
270.0603288
0
ARC
8
DEFAULT_255_1_388
10
22.7094876
20
84.3967418
40
0.2514919
50
269.3314378
51
287.2180039
0
ARC
8
DEFAULT_255_1_388
10
22.7249958
20
84.3401291
40
0.1928357
50
287.7957942
51
329.0808983
0
ARC
8
DEFAULT_255_1_388
10
22.6172715
20
84.4073651
40
0.319808
50
328.6635261
51
343.3325043
0
ARC
8
DEFAULT_255_1_388
10
22.3728174
20
84.4835195
40
0.5758408
50
343.0498092
51
351.9392499
0
ARC
8
DEFAULT_255_1_388
10
21.9827496
20
84.5410205
40
0.9701202
50
351.8071632
51
357.7957897
0
ARC
8
DEFAULT_255_1_388
10
21.6192973
20
84.5598724
40
1.3340376
50
357.5870923
51
359.2682493
0
LINE
8
DEFAULT_255_1_388
10
23.4393439
20
85.3424898
11
23.8134196
21
84.2573089
0
LINE
8
DEFAULT_255_1_388
10
23.8134196
20
84.2573089
11
24.1893024
21
85.3424898
0
LINE
8
DEFAULT_255_1_388
10
24.1893024
20
85.3424898
11
24.3790509
21
85.3424898
0
LINE
8
DEFAULT_255_1_388
10
24.3790509
20
85.3424898
11
23.8911261
21
84.0269
0
LINE
8
DEFAULT_255_1_388
10
23.8911261
20
84.0269
11
23.7375202
21
84.0269
0
LINE
8
DEFAULT_255_1_388
10
23.7375202
20
84.0269
11
23.2504989
21
85.3424898
0
LINE
8
DEFAULT_255_1_388
10
23.2504989
20
85.3424898
11
23.4393439
21
85.3424898
0
LINE
8
DEFAULT_255_1_388
10
21.0698448
20
37.7174898
11
21.4439205
21
36.6323089
0
LINE
8
DEFAULT_255_1_388
10
21.4439205
20
36.6323089
11
21.8198033
21
37.7174898
0
LINE
8
DEFAULT_255_1_388
10
21.8198033
20
37.7174898
11
22.0095518
21
37.7174898
0
LINE
8
DEFAULT_255_1_388
10
22.0095518
20
37.7174898
11
21.521627
21
36.4019
0
LINE
8
DEFAULT_255_1_388
10
21.521627
20
36.4019
11
21.368021
21
36.4019
0
LINE
8
DEFAULT_255_1_388
10
21.368021
20
36.4019
11
20.8809998
21
37.7174898
0
LINE
8
DEFAULT_255_1_388
10
20.8809998
20
37.7174898
11
21.0698448
21
37.7174898
0
LINE
8
DEFAULT_255_1_388
10
23.1859927
20
37.1003553
11
23.1859927
21
37.0172274
0
LINE
8
DEFAULT_255_1_388
10
22.1279187
20
37.0054811
11
22.1279187
21
37.1003553
0
LINE
8
DEFAULT_255_1_388
10
23.0134119
20
37.0045775
11
23.0134119
21
37.1021625
0
LINE
8
DEFAULT_255_1_388
10
22.3004996
20
37.1139088
11
22.3004996
21
37.0172274
0
ARC
8
DEFAULT_255_1_388
10
22.2137666
20
37.0127726
40
0.9722364
50
350.4878118
51
0.2625322
0
ARC
8
DEFAULT_255_1_388
10
22.4717626
20
36.9683994
40
0.7104556
50
336.0277991
51
350.5787241
0
ARC
8
DEFAULT_255_1_388
10
22.6230732
20
36.9000243
40
0.544417
50
319.887443
51
336.1331163
0
ARC
8
DEFAULT_255_1_388
10
22.6908545
20
36.8457733
40
0.4576311
50
302.4806296
51
319.6144102
0
ARC
8
DEFAULT_255_1_388
10
22.6779166
20
36.8707067
40
0.4856183
50
275.8196423
51
302.1885521
0
ARC
8
DEFAULT_255_1_388
10
22.6592027
20
36.9992466
40
0.6154183
50
269.9169897
51
276.339506
0
ARC
8
DEFAULT_255_1_388
10
22.6541628
20
36.922068
40
0.5382553
50
252.5221437
51
270.441579
0
ARC
8
DEFAULT_255_1_388
10
22.6379878
20
36.8614046
40
0.4755426
50
237.5349961
51
252.1858334
0
ARC
8
DEFAULT_255_1_388
10
22.6480254
20
36.874212
40
0.4917393
50
209.0632754
51
237.3492577
0
ARC
8
DEFAULT_255_1_388
10
22.745958
20
36.9357104
40
0.6072464
50
205.118533
51
209.6465345
0
ARC
8
DEFAULT_255_1_388
10
22.8355582
20
36.9737174
40
0.7045164
50
188.7216633
51
204.8239753
0
ARC
8
DEFAULT_255_1_388
10
23.0602358
20
37.0115387
40
0.9323368
50
180.3722704
51
188.9253909
0
ARC
8
DEFAULT_255_1_388
10
23.0571919
20
37.1048416
40
0.929284
50
169.5253055
51
180.2766048
0
ARC
8
DEFAULT_255_1_388
10
22.8431718
20
37.1442024
40
0.7116745
50
155.8314601
51
169.5088611
0
ARC
8
DEFAULT_255_1_388
10
22.6991181
20
37.2110312
40
0.5528904
50
139.6259579
51
156.0379072
0
ARC
8
DEFAULT_255_1_388
10
22.6327715
20
37.2644143
40
0.4677708
50
122.6414784
51
139.3431662
0
ARC
8
DEFAULT_255_1_388
10
22.644097
20
37.2437787
40
0.4912586
50
93.0224537
51
122.4556091
0
ARC
8
DEFAULT_255_1_388
10
22.6562491
20
37.1351776
40
0.6003837
50
89.9756766
51
93.6340839
0
ARC
8
DEFAULT_255_1_388
10
22.6606088
20
37.1800879
40
0.5554884
50
73.7463329
51
90.4234008
0
ARC
8
DEFAULT_255_1_388
10
22.6803562
20
37.2565772
40
0.4765353
50
57.663051
51
73.4516911
0
ARC
8
DEFAULT_255_1_388
10
22.6794599
20
37.2590108
40
0.4749629
50
29.1441355
51
57.4146687
0
ARC
8
DEFAULT_255_1_388
10
22.5742411
20
37.1933046
40
0.5988917
50
24.0985653
51
29.732054
0
ARC
8
DEFAULT_255_1_388
10
22.4580042
20
37.1451154
40
0.7246823
50
8.6654943
51
23.8241215
0
ARC
8
DEFAULT_255_1_388
10
22.2066461
20
37.1041037
40
0.9793537
50
359.7807044
51
8.8218476
0
ARC
8
DEFAULT_255_1_388
10
22.0776165
20
37.1069731
40
0.9358078
50
359.7054632
51
8.0359751
0
ARC
8
DEFAULT_255_1_388
10
22.4151217
20
37.1561252
40
0.5947474
50
7.8926278
51
20.2962188
0
ARC
8
DEFAULT_255_1_388
10
22.5982067
20
37.2236367
40
0.3996117
50
20.3231056
51
36.4990255
0
ARC
8
DEFAULT_255_1_388
10
22.6753364
20
37.2830399
40
0.3022818
50
36.1436715
51
85.6627846
0
ARC
8
DEFAULT_255_1_388
10
22.657062
20
37.1660881
40
0.4203853
50
84.3845912
51
90.076054
0
ARC
8
DEFAULT_255_1_388
10
22.6522974
20
37.2403416
40
0.346157
50
89.3037228
51
109.9046209
0
ARC
8
DEFAULT_255_1_388
10
22.6418807
20
37.2833379
40
0.3022217
50
110.8229774
51
143.917961
0
ARC
8
DEFAULT_255_1_388
10
22.7469167
20
37.2031455
40
0.434348
50
143.5289166
51
163.2980252
0
ARC
8
DEFAULT_255_1_388
10
22.9615454
20
37.1356685
40
0.659321
50
163.0418884
51
174.3139873
0
ARC
8
DEFAULT_255_1_388
10
23.2320419
20
37.1044378
40
0.9315905
50
174.050934
51
179.4174954
0
ARC
8
DEFAULT_255_1_388
10
23.1752363
20
37.0125382
40
0.8747493
50
179.6928582
51
188.7908948
0
ARC
8
DEFAULT_255_1_388
10
22.8756163
20
36.9646086
40
0.5713262
50
188.6328449
51
202.5630732
0
ARC
8
DEFAULT_255_1_388
10
22.7344999
20
36.9079142
40
0.4192612
50
202.8078931
51
216.1195888
0
ARC
8
DEFAULT_255_1_388
10
22.6434516
20
36.8346479
40
0.3025752
50
215.0755613
51
264.6379773
0
ARC
8
DEFAULT_255_1_388
10
22.6577354
20
36.9281376
40
0.3970284
50
263.8464302
51
270.0830805
0
ARC
8
DEFAULT_255_1_388
10
22.6623899
20
36.8990808
40
0.3679937
50
269.3649295
51
287.5149684
0
ARC
8
DEFAULT_255_1_388
10
22.6824339
20
36.8262714
40
0.2925408
50
288.0629019
51
323.8115617
0
ARC
8
DEFAULT_255_1_388
10
22.5844316
20
36.8993754
40
0.4148018
50
323.6546541
51
342.6591359
0
ARC
8
DEFAULT_255_1_388
10
22.3558973
20
36.973728
40
0.6551163
50
342.4092446
51
353.6451501
0
ARC
8
DEFAULT_255_1_388
10
22.0373767
20
37.0133565
40
0.9760748
50
353.4027553
51
359.4846611
0
LINE
8
DEFAULT_255_1_388
10
24.2521988
20
37.7174898
11
24.2521988
21
37.6235191
0
LINE
8
DEFAULT_255_1_388
10
24.2521988
20
37.6235191
11
23.7073494
21
36.4019
0
LINE
8
DEFAULT_255_1_388
10
23.7073494
20
36.4019
11
23.5320579
21
36.4019
0
LINE
8
DEFAULT_255_1_388
10
23.5320579
20
36.4019
11
24.0751001
21
37.580148
0
LINE
8
DEFAULT_255_1_388
10
24.0751001
20
37.580148
11
23.3630914
21
37.580148
0
LINE
8
DEFAULT_255_1_388
10
23.3630914
20
37.580148
11
23.3630914
21
37.7174898
0
LINE
8
DEFAULT_255_1_388
10
23.3630914
20
37.7174898
11
24.2521988
21
37.7174898
0
LINE
8
DEFAULT_255_1_388
10
22.1146946
20
45.0378553
11
22.1146946
21
44.9547274
0
LINE
8
DEFAULT_255_1_388
10
21.0566206
20
44.9429811
11
21.0566206
21
45.0378553
0
LINE
8
DEFAULT_255_1_388
10
21.9421138
20
44.9420775
11
21.9421138
21
45.0396625
0
LINE
8
DEFAULT_255_1_388
10
21.2292014
20
45.0514088
11
21.2292014
21
44.9547274
0
ARC
8
DEFAULT_255_1_388
10
21.1424684
20
44.9502726
40
0.9722364
50
350.4878118
51
0.2625322
0
ARC
8
DEFAULT_255_1_388
10
21.4004644
20
44.9058994
40
0.7104556
50
336.0277991
51
350.5787241
0
ARC
8
DEFAULT_255_1_388
10
21.5517751
20
44.8375243
40
0.544417
50
319.887443
51
336.1331163
0
ARC
8
DEFAULT_255_1_388
10
21.6195563
20
44.7832733
40
0.4576311
50
302.4806296
51
319.6144102
0
ARC
8
DEFAULT_255_1_388
10
21.6066184
20
44.8082067
40
0.4856183
50
275.8196423
51
302.1885521
0
ARC
8
DEFAULT_255_1_388
10
21.5879046
20
44.9367466
40
0.6154183
50
269.9169897
51
276.339506
0
ARC
8
DEFAULT_255_1_388
10
21.5828646
20
44.859568
40
0.5382553
50
252.5221437
51
270.441579
0
ARC
8
DEFAULT_255_1_388
10
21.5666897
20
44.7989046
40
0.4755426
50
237.5349961
51
252.1858334
0
ARC
8
DEFAULT_255_1_388
10
21.5767273
20
44.811712
40
0.4917393
50
209.0632754
51
237.3492577
0
ARC
8
DEFAULT_255_1_388
10
21.6746599
20
44.8732104
40
0.6072464
50
205.118533
51
209.6465345
0
ARC
8
DEFAULT_255_1_388
10
21.7642601
20
44.9112174
40
0.7045164
50
188.7216633
51
204.8239753
0
ARC
8
DEFAULT_255_1_388
10
21.9889376
20
44.9490387
40
0.9323368
50
180.3722704
51
188.9253909
0
ARC
8
DEFAULT_255_1_388
10
21.9858938
20
45.0423416
40
0.929284
50
169.5253055
51
180.2766048
0
ARC
8
DEFAULT_255_1_388
10
21.7718737
20
45.0817024
40
0.7116745
50
155.8314601
51
169.5088611
0
ARC
8
DEFAULT_255_1_388
10
21.62782
20
45.1485312
40
0.5528904
50
139.6259579
51
156.0379072
0
ARC
8
DEFAULT_255_1_388
10
21.5614733
20
45.2019143
40
0.4677708
50
122.6414784
51
139.3431662
0
ARC
8
DEFAULT_255_1_388
10
21.5727988
20
45.1812787
40
0.4912586
50
93.0224537
51
122.4556091
0
ARC
8
DEFAULT_255_1_388
10
21.5849509
20
45.0726776
40
0.6003837
50
89.9756766
51
93.6340839
0
ARC
8
DEFAULT_255_1_388
10
21.5893107
20
45.1175879
40
0.5554884
50
73.7463329
51
90.4234008
0
ARC
8
DEFAULT_255_1_388
10
21.609058
20
45.1940772
40
0.4765353
50
57.663051
51
73.4516911
0
ARC
8
DEFAULT_255_1_388
10
21.6081618
20
45.1965108
40
0.4749629
50
29.1441355
51
57.4146687
0
ARC
8
DEFAULT_255_1_388
10
21.5029429
20
45.1308046
40
0.5988917
50
24.0985653
51
29.732054
0
ARC
8
DEFAULT_255_1_388
10
21.3867061
20
45.0826154
40
0.7246823
50
8.6654943
51
23.8241215
0
ARC
8
DEFAULT_255_1_388
10
21.1353479
20
45.0416037
40
0.9793537
50
359.7807044
51
8.8218476
0
ARC
8
DEFAULT_255_1_388
10
21.0063184
20
45.0444731
40
0.9358078
50
359.7054632
51
8.0359751
0
ARC
8
DEFAULT_255_1_388
10
21.3438235
20
45.0936252
40
0.5947474
50
7.8926278
51
20.2962188
0
ARC
8
DEFAULT_255_1_388
10
21.5269085
20
45.1611367
40
0.3996117
50
20.3231056
51
36.4990255
0
ARC
8
DEFAULT_255_1_388
10
21.6040383
20
45.2205399
40
0.3022818
50
36.1436715
51
85.6627846
0
ARC
8
DEFAULT_255_1_388
10
21.5857638
20
45.1035881
40
0.4203853
50
84.3845912
51
90.076054
0
ARC
8
DEFAULT_255_1_388
10
21.5809993
20
45.1778416
40
0.346157
50
89.3037228
51
109.9046209
0
ARC
8
DEFAULT_255_1_388
10
21.5705826
20
45.2208379
40
0.3022217
50
110.8229774
51
143.917961
0
ARC
8
DEFAULT_255_1_388
10
21.6756185
20
45.1406455
40
0.434348
50
143.5289166
51
163.2980252
0
ARC
8
DEFAULT_255_1_388
10
21.8902472
20
45.0731685
40
0.659321
50
163.0418884
51
174.3139873
0
ARC
8
DEFAULT_255_1_388
10
22.1607437
20
45.0419378
40
0.9315905
50
174.050934
51
179.4174954
0
ARC
8
DEFAULT_255_1_388
10
22.1039381
20
44.9500382
40
0.8747493
50
179.6928582
51
188.7908948
0
ARC
8
DEFAULT_255_1_388
10
21.8043181
20
44.9021086
40
0.5713262
50
188.6328449
51
202.5630732
0
ARC
8
DEFAULT_255_1_388
10
21.6632018
20
44.8454142
40
0.4192612
50
202.8078931
51
216.1195888
0
ARC
8
DEFAULT_255_1_388
10
21.5721535
20
44.7721479
40
0.3025752
50
215.0755613
51
264.6379773
0
ARC
8
DEFAULT_255_1_388
10
21.5864372
20
44.8656376
40
0.3970284
50
263.8464302
51
270.0830805
0
ARC
8
DEFAULT_255_1_388
10
21.5910917
20
44.8365808
40
0.3679937
50
269.3649295
51
287.5149684
0
ARC
8
DEFAULT_255_1_388
10
21.6111358
20
44.7637714
40
0.2925408
50
288.0629019
51
323.8115617
0
ARC
8
DEFAULT_255_1_388
10
21.5131334
20
44.8368754
40
0.4148018
50
323.6546541
51
342.6591359
0
ARC
8
DEFAULT_255_1_388
10
21.2845992
20
44.911228
40
0.6551163
50
342.4092446
51
353.6451501
0
ARC
8
DEFAULT_255_1_388
10
20.9660785
20
44.9508565
40
0.9760748
50
353.4027553
51
359.4846611
0
LINE
8
DEFAULT_255_1_388
10
23.1682507
20
44.7568468
11
23.3426387
21
44.7568468
0
LINE
8
DEFAULT_255_1_388
10
22.3297429
20
44.9357525
11
22.3297429
21
45.0622516
0
LINE
8
DEFAULT_255_1_388
10
23.3426387
20
45.2321217
11
23.1682507
21
45.2321217
0
LINE
8
DEFAULT_255_1_388
10
22.5041309
20
45.0577337
11
22.5041309
21
44.9303312
0
ARC
8
DEFAULT_255_1_388
10
22.7260621
20
44.8240329
40
0.6202263
50
340.1774904
51
353.7812217
0
ARC
8
DEFAULT_255_1_388
10
22.9028473
20
44.7581893
40
0.4315926
50
311.4560052
51
340.4420756
0
ARC
8
DEFAULT_255_1_388
10
22.8991013
20
44.7706665
40
0.4434573
50
282.4332229
51
310.7514507
0
ARC
8
DEFAULT_255_1_388
10
22.8496831
20
44.9748703
40
0.6535262
50
269.9358869
51
282.8096729
0
ARC
8
DEFAULT_255_1_388
10
22.8438771
20
45.1261329
40
0.8048043
50
269.9995752
51
270.3612856
0
ARC
8
DEFAULT_255_1_388
10
22.8379261
20
44.8462781
40
0.5249831
50
250.7885263
51
270.6488451
0
ARC
8
DEFAULT_255_1_388
10
22.8190085
20
44.7745853
40
0.4510942
50
219.3628377
51
250.0611024
0
ARC
8
DEFAULT_255_1_388
10
22.912296
20
44.8538653
40
0.5735046
50
193.5480293
51
219.5755675
0
ARC
8
DEFAULT_255_1_388
10
23.1791168
20
44.923152
40
0.849146
50
181.1220183
51
193.8754971
0
ARC
8
DEFAULT_255_1_388
10
23.4114402
20
44.9355914
40
1.0816971
50
179.9914644
51
181.5398227
0
ARC
8
DEFAULT_255_1_388
10
23.2037712
20
45.0664586
40
0.8740384
50
169.5837606
51
180.275782
0
ARC
8
DEFAULT_255_1_388
10
22.997106
20
45.1046439
40
0.6638751
50
155.0367033
51
169.6002779
0
ARC
8
DEFAULT_255_1_388
10
22.8693519
20
45.1662336
40
0.5220662
50
136.7831557
51
155.2472983
0
ARC
8
DEFAULT_255_1_388
10
22.8255309
20
45.2034577
40
0.4646502
50
121.7633063
51
136.4281161
0
ARC
8
DEFAULT_255_1_388
10
22.8407149
20
45.1754049
40
0.4964979
50
95.6460018
51
121.5489589
0
ARC
8
DEFAULT_255_1_388
10
22.8584123
20
45.0506704
40
0.6223912
50
89.9245727
51
96.1375919
0
ARC
8
DEFAULT_255_1_388
10
22.8640829
20
45.0640721
40
0.6090084
50
76.6779212
51
90.456405
0
ARC
8
DEFAULT_255_1_388
10
22.9083641
20
45.243006
40
0.42469
50
47.4858803
51
76.9287069
0
ARC
8
DEFAULT_255_1_388
10
22.8918255
20
45.2317623
40
0.4441778
50
16.5424081
51
46.8934505
0
ARC
8
DEFAULT_255_1_388
10
22.7109305
20
45.1723265
40
0.6345318
50
5.4072971
51
17.0363711
0
ARC
8
DEFAULT_255_1_388
10
22.549103
20
45.1463304
40
0.6250632
50
7.8888693
51
15.9242022
0
ARC
8
DEFAULT_255_1_388
10
22.7726015
20
45.2112309
40
0.3923364
50
15.7650676
51
27.9410069
0
ARC
8
DEFAULT_255_1_388
10
22.8968185
20
45.2777317
40
0.2514401
50
27.8167196
51
46.4007942
0
ARC
8
DEFAULT_255_1_388
10
22.9024026
20
45.2770882
40
0.2480958
50
47.4372362
51
75.0695672
0
ARC
8
DEFAULT_255_1_388
10
22.8676862
20
45.1562277
40
0.3738281
50
74.7009379
51
87.8124314
0
ARC
8
DEFAULT_255_1_388
10
22.8594479
20
45.0378659
40
0.4924321
50
87.3802571
51
90.0251599
0
ARC
8
DEFAULT_255_1_388
10
22.8551127
20
45.1698997
40
0.3604218
50
89.3451886
51
108.5744412
0
ARC
8
DEFAULT_255_1_388
10
22.8397119
20
45.2276836
40
0.3007661
50
109.2998307
51
143.3037387
0
ARC
8
DEFAULT_255_1_388
10
22.9254408
20
45.1617584
40
0.4089031
50
143.075267
51
163.1918576
0
ARC
8
DEFAULT_255_1_388
10
23.1450243
20
45.0924652
40
0.6391492
50
162.9375929
51
174.6208776
0
ARC
8
DEFAULT_255_1_388
10
23.4404625
20
45.0600711
40
0.9363344
50
174.342123
51
180.1430283
0
ARC
8
DEFAULT_255_1_388
10
23.3357166
20
44.9257117
40
0.8315986
50
179.6817261
51
189.150555
0
ARC
8
DEFAULT_255_1_388
10
23.0543915
20
44.8788559
40
0.5464044
50
188.9911061
51
203.5772363
0
ARC
8
DEFAULT_255_1_388
10
22.9329207
20
44.8284539
40
0.4149206
50
203.9075402
51
215.1312435
0
ARC
8
DEFAULT_255_1_388
10
22.8291004
20
44.7479907
40
0.2837747
50
213.9071511
51
263.8848919
0
ARC
8
DEFAULT_255_1_388
10
22.8431998
20
44.8362519
40
0.3730641
50
263.1757928
51
270.1031044
0
ARC
8
DEFAULT_255_1_388
10
22.8468077
20
44.9765511
40
0.5133712
50
269.6722503
51
279.0606936
0
ARC
8
DEFAULT_255_1_388
10
22.8768233
20
44.795115
40
0.3294739
50
278.8749101
51
293.6349581
0
ARC
8
DEFAULT_255_1_388
10
22.9128436
20
44.7105251
40
0.2375405
50
293.8553806
51
310.0518171
0
ARC
8
DEFAULT_255_1_388
10
22.9133945
20
44.7035021
40
0.2318463
50
311.0644687
51
332.0111037
0
ARC
8
DEFAULT_255_1_388
10
22.7792618
20
44.7774702
40
0.3850112
50
331.6586806
51
343.2877423
0
ARC
8
DEFAULT_255_1_388
10
22.5472084
20
44.8487806
40
0.6277712
50
343.1446576
51
351.0103568
0
ARC
8
DEFAULT_255_1_388
10
22.3839407
20
44.8787873
40
0.7937327
50
350.71248
51
351.1626997
0
LINE
8
DEFAULT_255_1_388
10
24.3853521
20
45.6549898
11
24.3853521
21
45.5610191
0
LINE
8
DEFAULT_255_1_388
10
24.3853521
20
45.5610191
11
23.8405027
21
44.3394
0
LINE
8
DEFAULT_255_1_388
10
23.8405027
20
44.3394
11
23.6652112
21
44.3394
0
LINE
8
DEFAULT_255_1_388
10
23.6652112
20
44.3394
11
24.2082534
21
45.517648
0
LINE
8
DEFAULT_255_1_388
10
24.2082534
20
45.517648
11
23.4962446
21
45.517648
0
LINE
8
DEFAULT_255_1_388
10
23.4962446
20
45.517648
11
23.4962446
21
45.6549898
0
LINE
8
DEFAULT_255_1_388
10
23.4962446
20
45.6549898
11
24.3853521
21
45.6549898
0
LINE
8
DEFAULT_255_1_388
10
21.9890367
20
53.5924898
11
21.9890367
21
52.2769
0
LINE
8
DEFAULT_255_1_388
10
21.9890367
20
52.2769
11
21.8155523
21
52.2769
0
LINE
8
DEFAULT_255_1_388
10
21.8155523
20
52.2769
11
21.8155523
21
53.5924898
0
LINE
8
DEFAULT_255_1_388
10
21.8155523
20
53.5924898
11
21.9890367
21
53.5924898
0
LINE
8
DEFAULT_255_1_388
10
23.31818
20
52.9753553
11
23.31818
21
52.8922274
0
LINE
8
DEFAULT_255_1_388
10
22.260106
20
52.8804811
11
22.260106
21
52.9753553
0
LINE
8
DEFAULT_255_1_388
10
23.1455992
20
52.8795775
11
23.1455992
21
52.9771625
0
LINE
8
DEFAULT_255_1_388
10
22.4326868
20
52.9889088
11
22.4326868
21
52.8922274
0
ARC
8
DEFAULT_255_1_388
10
22.3459538
20
52.8877726
40
0.9722364
50
350.4878118
51
0.2625322
0
ARC
8
DEFAULT_255_1_388
10
22.6039498
20
52.8433994
40
0.7104556
50
336.0277991
51
350.5787241
0
ARC
8
DEFAULT_255_1_388
10
22.7552605
20
52.7750243
40
0.544417
50
319.887443
51
336.1331163
0
ARC
8
DEFAULT_255_1_388
10
22.8230417
20
52.7207733
40
0.4576311
50
302.4806296
51
319.6144102
0
ARC
8
DEFAULT_255_1_388
10
22.8101038
20
52.7457067
40
0.4856183
50
275.8196423
51
302.1885521
0
ARC
8
DEFAULT_255_1_388
10
22.79139
20
52.8742466
40
0.6154183
50
269.9169897
51
276.339506
0
ARC
8
DEFAULT_255_1_388
10
22.78635
20
52.797068
40
0.5382553
50
252.5221437
51
270.441579
0
ARC
8
DEFAULT_255_1_388
10
22.7701751
20
52.7364046
40
0.4755426
50
237.5349961
51
252.1858334
0
ARC
8
DEFAULT_255_1_388
10
22.7802127
20
52.749212
40
0.4917393
50
209.0632754
51
237.3492577
0
ARC
8
DEFAULT_255_1_388
10
22.8781453
20
52.8107104
40
0.6072464
50
205.118533
51
209.6465345
0
ARC
8
DEFAULT_255_1_388
10
22.9677455
20
52.8487174
40
0.7045164
50
188.7216633
51
204.8239753
0
ARC
8
DEFAULT_255_1_388
10
23.192423
20
52.8865387
40
0.9323368
50
180.3722704
51
188.9253909
0
ARC
8
DEFAULT_255_1_388
10
23.1893792
20
52.9798416
40
0.929284
50
169.5253055
51
180.2766048
0
ARC
8
DEFAULT_255_1_388
10
22.9753591
20
53.0192024
40
0.7116745
50
155.8314601
51
169.5088611
0
ARC
8
DEFAULT_255_1_388
10
22.8313054
20
53.0860312
40
0.5528904
50
139.6259579
51
156.0379072
0
ARC
8
DEFAULT_255_1_388
10
22.7649588
20
53.1394143
40
0.4677708
50
122.6414784
51
139.3431662
0
ARC
8
DEFAULT_255_1_388
10
22.7762842
20
53.1187787
40
0.4912586
50
93.0224537
51
122.4556091
0
ARC
8
DEFAULT_255_1_388
10
22.7884363
20
53.0101776
40
0.6003837
50
89.9756766
51
93.6340839
0
ARC
8
DEFAULT_255_1_388
10
22.7927961
20
53.0550879
40
0.5554884
50
73.7463329
51
90.4234008
0
ARC
8
DEFAULT_255_1_388
10
22.8125434
20
53.1315772
40
0.4765353
50
57.663051
51
73.4516911
0
ARC
8
DEFAULT_255_1_388
10
22.8116472
20
53.1340108
40
0.4749629
50
29.1441355
51
57.4146687
0
ARC
8
DEFAULT_255_1_388
10
22.7064283
20
53.0683046
40
0.5988917
50
24.0985653
51
29.732054
0
ARC
8
DEFAULT_255_1_388
10
22.5901915
20
53.0201154
40
0.7246823
50
8.6654943
51
23.8241215
0
ARC
8
DEFAULT_255_1_388
10
22.3388333
20
52.9791037
40
0.9793537
50
359.7807044
51
8.8218476
0
ARC
8
DEFAULT_255_1_388
10
22.2098038
20
52.9819731
40
0.9358078
50
359.7054632
51
8.0359751
0
ARC
8
DEFAULT_255_1_388
10
22.5473089
20
53.0311252
40
0.5947474
50
7.8926278
51
20.2962188
0
ARC
8
DEFAULT_255_1_388
10
22.7303939
20
53.0986367
40
0.3996117
50
20.3231056
51
36.4990255
0
ARC
8
DEFAULT_255_1_388
10
22.8075237
20
53.1580399
40
0.3022818
50
36.1436715
51
85.6627846
0
ARC
8
DEFAULT_255_1_388
10
22.7892492
20
53.0410881
40
0.4203853
50
84.3845912
51
90.076054
0
ARC
8
DEFAULT_255_1_388
10
22.7844847
20
53.1153416
40
0.346157
50
89.3037228
51
109.9046209
0
ARC
8
DEFAULT_255_1_388
10
22.774068
20
53.1583379
40
0.3022217
50
110.8229774
51
143.917961
0
ARC
8
DEFAULT_255_1_388
10
22.8791039
20
53.0781455
40
0.434348
50
143.5289166
51
163.2980252
0
ARC
8
DEFAULT_255_1_388
10
23.0937326
20
53.0106685
40
0.659321
50
163.0418884
51
174.3139873
0
ARC
8
DEFAULT_255_1_388
10
23.3642291
20
52.9794378
40
0.9315905
50
174.050934
51
179.4174954
0
ARC
8
DEFAULT_255_1_388
10
23.3074235
20
52.8875382
40
0.8747493
50
179.6928582
51
188.7908948
0
ARC
8
DEFAULT_255_1_388
10
23.0078035
20
52.8396086
40
0.5713262
50
188.6328449
51
202.5630732
0
ARC
8
DEFAULT_255_1_388
10
22.8666872
20
52.7829142
40
0.4192612
50
202.8078931
51
216.1195888
0
ARC
8
DEFAULT_255_1_388
10
22.7756389
20
52.7096479
40
0.3025752
50
215.0755613
51
264.6379773
0
ARC
8
DEFAULT_255_1_388
10
22.7899226
20
52.8031376
40
0.3970284
50
263.8464302
51
270.0830805
0
ARC
8
DEFAULT_255_1_388
10
22.7945771
20
52.7740808
40
0.3679937
50
269.3649295
51
287.5149684
0
ARC
8
DEFAULT_255_1_388
10
22.8146212
20
52.7012714
40
0.2925408
50
288.0629019
51
323.8115617
0
ARC
8
DEFAULT_255_1_388
10
22.7166188
20
52.7743754
40
0.4148018
50
323.6546541
51
342.6591359
0
ARC
8
DEFAULT_255_1_388
10
22.4880846
20
52.848728
40
0.6551163
50
342.4092446
51
353.6451501
0
ARC
8
DEFAULT_255_1_388
10
22.1695639
20
52.8883565
40
0.9760748
50
353.4027553
51
359.4846611
0
LINE
8
DEFAULT_255_1_388
10
24.384386
20
53.5924898
11
24.384386
21
53.4985191
0
LINE
8
DEFAULT_255_1_388
10
24.384386
20
53.4985191
11
23.8395367
21
52.2769
0
LINE
8
DEFAULT_255_1_388
10
23.8395367
20
52.2769
11
23.6642452
21
52.2769
0
LINE
8
DEFAULT_255_1_388
10
23.6642452
20
52.2769
11
24.2072874
21
53.455148
0
LINE
8
DEFAULT_255_1_388
10
24.2072874
20
53.455148
11
23.4952786
21
53.455148
0
LINE
8
DEFAULT_255_1_388
10
23.4952786
20
53.455148
11
23.4952786
21
53.5924898
0
LINE
8
DEFAULT_255_1_388
10
23.4952786
20
53.5924898
11
24.384386
21
53.5924898
0
LINE
8
DEFAULT_255_1_388
10
21.0698448
20
61.5299898
11
21.4439205
21
60.4448089
0
LINE
8
DEFAULT_255_1_388
10
21.4439205
20
60.4448089
11
21.8198033
21
61.5299898
0
LINE
8
DEFAULT_255_1_388
10
21.8198033
20
61.5299898
11
22.0095518
21
61.5299898
0
LINE
8
DEFAULT_255_1_388
10
22.0095518
20
61.5299898
11
21.521627
21
60.2144
0
LINE
8
DEFAULT_255_1_388
10
21.521627
20
60.2144
11
21.368021
21
60.2144
0
LINE
8
DEFAULT_255_1_388
10
21.368021
20
60.2144
11
20.8809998
21
61.5299898
0
LINE
8
DEFAULT_255_1_388
10
20.8809998
20
61.5299898
11
21.0698448
21
61.5299898
0
LINE
8
DEFAULT_255_1_388
10
23.1859927
20
60.9128553
11
23.1859927
21
60.8297274
0
LINE
8
DEFAULT_255_1_388
10
22.1279187
20
60.8179811
11
22.1279187
21
60.9128553
0
LINE
8
DEFAULT_255_1_388
10
23.0134119
20
60.8170775
11
23.0134119
21
60.9146625
0
LINE
8
DEFAULT_255_1_388
10
22.3004996
20
60.9264088
11
22.3004996
21
60.8297274
0
ARC
8
DEFAULT_255_1_388
10
22.2137666
20
60.8252726
40
0.9722364
50
350.4878118
51
0.2625322
0
ARC
8
DEFAULT_255_1_388
10
22.4717626
20
60.7808994
40
0.7104556
50
336.0277991
51
350.5787241
0
ARC
8
DEFAULT_255_1_388
10
22.6230732
20
60.7125243
40
0.544417
50
319.887443
51
336.1331163
0
ARC
8
DEFAULT_255_1_388
10
22.6908545
20
60.6582733
40
0.4576311
50
302.4806296
51
319.6144102
0
ARC
8
DEFAULT_255_1_388
10
22.6779166
20
60.6832067
40
0.4856183
50
275.8196423
51
302.1885521
0
ARC
8
DEFAULT_255_1_388
10
22.6592027
20
60.8117466
40
0.6154183
50
269.9169897
51
276.339506
0
ARC
8
DEFAULT_255_1_388
10
22.6541628
20
60.734568
40
0.5382553
50
252.5221437
51
270.441579
0
ARC
8
DEFAULT_255_1_388
10
22.6379878
20
60.6739046
40
0.4755426
50
237.5349961
51
252.1858334
0
ARC
8
DEFAULT_255_1_388
10
22.6480254
20
60.686712
40
0.4917393
50
209.0632754
51
237.3492577
0
ARC
8
DEFAULT_255_1_388
10
22.745958
20
60.7482104
40
0.6072464
50
205.118533
51
209.6465345
0
ARC
8
DEFAULT_255_1_388
10
22.8355582
20
60.7862174
40
0.7045164
50
188.7216633
51
204.8239753
0
ARC
8
DEFAULT_255_1_388
10
23.0602358
20
60.8240387
40
0.9323368
50
180.3722704
51
188.9253909
0
ARC
8
DEFAULT_255_1_388
10
23.0571919
20
60.9173416
40
0.929284
50
169.5253055
51
180.2766048
0
ARC
8
DEFAULT_255_1_388
10
22.8431718
20
60.9567024
40
0.7116745
50
155.8314601
51
169.5088611
0
ARC
8
DEFAULT_255_1_388
10
22.6991181
20
61.0235312
40
0.5528904
50
139.6259579
51
156.0379072
0
ARC
8
DEFAULT_255_1_388
10
22.6327715
20
61.0769143
40
0.4677708
50
122.6414784
51
139.3431662
0
ARC
8
DEFAULT_255_1_388
10
22.644097
20
61.0562787
40
0.4912586
50
93.0224537
51
122.4556091
0
ARC
8
DEFAULT_255_1_388
10
22.6562491
20
60.9476776
40
0.6003837
50
89.9756766
51
93.6340839
0
ARC
8
DEFAULT_255_1_388
10
22.6606088
20
60.9925879
40
0.5554884
50
73.7463329
51
90.4234008
0
ARC
8
DEFAULT_255_1_388
10
22.6803562
20
61.0690772
40
0.4765353
50
57.663051
51
73.4516911
0
ARC
8
DEFAULT_255_1_388
10
22.6794599
20
61.0715108
40
0.4749629
50
29.1441355
51
57.4146687
0
ARC
8
DEFAULT_255_1_388
10
22.5742411
20
61.0058046
40
0.5988917
50
24.0985653
51
29.732054
0
ARC
8
DEFAULT_255_1_388
10
22.4580042
20
60.9576154
40
0.7246823
50
8.6654943
51
23.8241215
0
ARC
8
DEFAULT_255_1_388
10
22.2066461
20
60.9166037
40
0.9793537
50
359.7807044
51
8.8218476
0
ARC
8
DEFAULT_255_1_388
10
22.0776165
20
60.9194731
40
0.9358078
50
359.7054632
51
8.0359751
0
ARC
8
DEFAULT_255_1_388
10
22.4151217
20
60.9686252
40
0.5947474
50
7.8926278
51
20.2962188
0
ARC
8
DEFAULT_255_1_388
10
22.5982067
20
61.0361367
40
0.3996117
50
20.3231056
51
36.4990255
0
ARC
8
DEFAULT_255_1_388
10
22.6753364
20
61.0955399
40
0.3022818
50
36.1436715
51
85.6627846
0
ARC
8
DEFAULT_255_1_388
10
22.657062
20
60.9785881
40
0.4203853
50
84.3845912
51
90.076054
0
ARC
8
DEFAULT_255_1_388
10
22.6522974
20
61.0528416
40
0.346157
50
89.3037228
51
109.9046209
0
ARC
8
DEFAULT_255_1_388
10
22.6418807
20
61.0958379
40
0.3022217
50
110.8229774
51
143.917961
0
ARC
8
DEFAULT_255_1_388
10
22.7469167
20
61.0156455
40
0.434348
50
143.5289166
51
163.2980252
0
ARC
8
DEFAULT_255_1_388
10
22.9615454
20
60.9481685
40
0.659321
50
163.0418884
51
174.3139873
0
ARC
8
DEFAULT_255_1_388
10
23.2320419
20
60.9169378
40
0.9315905
50
174.050934
51
179.4174954
0
ARC
8
DEFAULT_255_1_388
10
23.1752363
20
60.8250382
40
0.8747493
50
179.6928582
51
188.7908948
0
ARC
8
DEFAULT_255_1_388
10
22.8756163
20
60.7771086
40
0.5713262
50
188.6328449
51
202.5630732
0
ARC
8
DEFAULT_255_1_388
10
22.7344999
20
60.7204142
40
0.4192612
50
202.8078931
51
216.1195888
0
ARC
8
DEFAULT_255_1_388
10
22.6434516
20
60.6471479
40
0.3025752
50
215.0755613
51
264.6379773
0
ARC
8
DEFAULT_255_1_388
10
22.6577354
20
60.7406376
40
0.3970284
50
263.8464302
51
270.0830805
0
ARC
8
DEFAULT_255_1_388
10
22.6623899
20
60.7115808
40
0.3679937
50
269.3649295
51
287.5149684
0
ARC
8
DEFAULT_255_1_388
10
22.6824339
20
60.6387714
40
0.2925408
50
288.0629019
51
323.8115617
0
ARC
8
DEFAULT_255_1_388
10
22.5844316
20
60.7118754
40
0.4148018
50
323.6546541
51
342.6591359
0
ARC
8
DEFAULT_255_1_388
10
22.3558973
20
60.786228
40
0.6551163
50
342.4092446
51
353.6451501
0
ARC
8
DEFAULT_255_1_388
10
22.0373767
20
60.8258565
40
0.9760748
50
353.4027553
51
359.4846611
0
LINE
8
DEFAULT_255_1_388
10
24.0290184
20
61.5308934
11
24.058836
21
61.5308934
0
LINE
8
DEFAULT_255_1_388
10
24.058836
20
61.5308934
11
24.058836
21
61.3890338
0
LINE
8
DEFAULT_255_1_388
10
24.058836
20
61.3890338
11
24.0281148
21
61.3890338
0
LINE
8
DEFAULT_255_1_388
10
23.4127874
20
60.7149747
11
23.4127874
21
60.7791278
0
LINE
8
DEFAULT_255_1_388
10
23.5808504
20
60.7574422
11
23.5808504
21
60.6959999
0
ARC
8
DEFAULT_255_1_388
10
24.0340039
20
60.8267826
40
0.562282
50
90.6001079
51
104.5146616
0
ARC
8
DEFAULT_255_1_388
10
23.9902999
20
60.98931
40
0.3939917
50
104.2855758
51
133.8630124
0
ARC
8
DEFAULT_255_1_388
10
24.0087252
20
60.9771243
40
0.4155734
50
134.5304124
51
161.6210222
0
ARC
8
DEFAULT_255_1_388
10
24.1947184
20
60.9115421
40
0.6127682
50
161.2850533
51
174.2074364
0
ARC
8
DEFAULT_255_1_388
10
24.3536751
20
60.8896437
40
0.7731446
50
173.7817938
51
174.9251711
0
ARC
8
DEFAULT_255_1_388
10
23.8410944
20
60.734127
40
0.3412588
50
95.8332067
51
138.995412
0
ARC
8
DEFAULT_255_1_388
10
23.8662225
20
60.5902695
40
0.4870358
50
89.8755506
51
97.0540979
0
ARC
8
DEFAULT_255_1_388
10
23.8715614
20
60.6842841
40
0.3930432
50
71.6407016
51
90.6240821
0
ARC
8
DEFAULT_255_1_388
10
23.8885007
20
60.7466433
40
0.3285421
50
39.6368051
51
71.0190743
0
ARC
8
DEFAULT_255_1_388
10
23.8168915
20
60.6847586
40
0.4231706
50
10.6588054
51
39.9044509
0
ARC
8
DEFAULT_255_1_388
10
23.642746
20
60.6469223
40
0.60133
50
359.6827842
51
11.1326896
0
ARC
8
DEFAULT_255_1_388
10
23.6382796
20
60.6389715
40
0.6058047
50
347.2485908
51
0.4371098
0
ARC
8
DEFAULT_255_1_388
10
23.8258582
20
60.5938379
40
0.4128987
50
318.1408565
51
347.6118497
0
ARC
8
DEFAULT_255_1_388
10
23.8624178
20
60.5637903
40
0.3656244
50
275.6342406
51
317.824739
0
ARC
8
DEFAULT_255_1_388
10
23.8375699
20
60.7099827
40
0.513655
50
269.8872513
51
276.7916069
0
ARC
8
DEFAULT_255_1_388
10
23.8313892
20
60.5946181
40
0.398323
50
246.9139443
51
270.7436787
0
ARC
8
DEFAULT_255_1_388
10
23.8321088
20
60.5786044
40
0.3839368
50
218.1665534
51
245.8780431
0
ARC
8
DEFAULT_255_1_388
10
23.931046
20
60.6613903
40
0.5128958
50
191.4115343
51
218.6077624
0
ARC
8
DEFAULT_255_1_388
10
24.1490776
20
60.7102777
40
0.7363054
50
179.6344971
51
191.7836758
0
ARC
8
DEFAULT_255_1_388
10
24.7770651
20
60.7866495
40
1.3642984
50
171.4523743
51
180.3158856
0
ARC
8
DEFAULT_255_1_388
10
24.2826378
20
60.8635895
40
0.8639311
50
157.9802296
51
171.6246761
0
ARC
8
DEFAULT_255_1_388
10
24.0335728
20
60.9629038
40
0.5958004
50
141.4299236
51
157.8541251
0
ARC
8
DEFAULT_255_1_388
10
23.9613812
20
61.0139746
40
0.5075416
50
102.871586
51
140.8564533
0
ARC
8
DEFAULT_255_1_388
10
24.0342364
20
60.7394943
40
0.7914163
50
90.377773
51
103.5868422
0
ARC
8
DEFAULT_255_1_388
10
23.8386885
20
60.6714543
40
0.2667015
50
89.8751238
51
126.2072139
0
ARC
8
DEFAULT_255_1_388
10
23.8438357
20
60.6540847
40
0.2838229
50
124.9742447
51
144.8960197
0
ARC
8
DEFAULT_255_1_388
10
23.8240602
20
60.6701981
40
0.2583845
50
145.2974778
51
160.2660922
0
ARC
8
DEFAULT_255_1_388
10
24.169709
20
60.6924151
40
0.5888695
50
179.6512124
51
190.285571
0
ARC
8
DEFAULT_255_1_388
10
23.9791569
20
60.6564968
40
0.3949683
50
190.0944895
51
207.5099647
0
ARC
8
DEFAULT_255_1_388
10
23.9155151
20
60.6262177
40
0.3245464
50
207.9585471
51
216.325377
0
ARC
8
DEFAULT_255_1_388
10
23.8772788
20
60.5947712
40
0.2751259
50
215.7661336
51
232.5457193
0
ARC
8
DEFAULT_255_1_388
10
23.8341904
20
60.5400273
40
0.2054668
50
232.8005815
51
270.6605497
0
ARC
8
DEFAULT_255_1_388
10
23.8393329
20
60.5809853
40
0.2464268
50
269.3550767
51
288.474612
0
ARC
8
DEFAULT_255_1_388
10
23.8497835
20
60.5416721
40
0.2058436
50
289.1831976
51
322.9685307
0
ARC
8
DEFAULT_255_1_388
10
23.7809937
20
60.5959279
40
0.2934408
50
322.6007085
51
346.5183319
0
ARC
8
DEFAULT_255_1_388
10
23.6507693
20
60.6291434
40
0.4278249
50
346.2584622
51
358.7739592
0
ARC
8
DEFAULT_255_1_388
10
23.5356269
20
60.6353829
40
0.5430876
50
358.3757628
51
0.0082477
0
ARC
8
DEFAULT_255_1_388
10
23.6213087
20
60.6384856
40
0.4574157
50
359.6211417
51
11.28403
0
ARC
8
DEFAULT_255_1_388
10
23.7649693
20
60.6684535
40
0.3106708
50
11.0483152
51
31.8145585
0
ARC
8
DEFAULT_255_1_388
10
23.7997398
20
60.6873045
40
0.2711963
50
32.3028554
51
38.0820598
0
ARC
8
DEFAULT_255_1_388
10
23.8470631
20
60.7301717
40
0.2075566
50
36.8249851
51
85.741667
0
ARC
8
DEFAULT_255_1_388
10
23.8395044
20
60.6738065
40
0.2643487
50
85.0150021
51
90.050843
0
LINE
8
DEFAULT_255_1_388
10
22.1146946
20
68.8503553
11
22.1146946
21
68.7672274
0
LINE
8
DEFAULT_255_1_388
10
21.0566206
20
68.7554811
11
21.0566206
21
68.8503553
0
LINE
8
DEFAULT_255_1_388
10
21.9421138
20
68.7545775
11
21.9421138
21
68.8521625
0
LINE
8
DEFAULT_255_1_388
10
21.2292014
20
68.8639088
11
21.2292014
21
68.7672274
0
ARC
8
DEFAULT_255_1_388
10
21.1424684
20
68.7627726
40
0.9722364
50
350.4878118
51
0.2625322
0
ARC
8
DEFAULT_255_1_388
10
21.4004644
20
68.7183994
40
0.7104556
50
336.0277991
51
350.5787241
0
ARC
8
DEFAULT_255_1_388
10
21.5517751
20
68.6500243
40
0.544417
50
319.887443
51
336.1331163
0
ARC
8
DEFAULT_255_1_388
10
21.6195563
20
68.5957733
40
0.4576311
50
302.4806296
51
319.6144102
0
ARC
8
DEFAULT_255_1_388
10
21.6066184
20
68.6207067
40
0.4856183
50
275.8196423
51
302.1885521
0
ARC
8
DEFAULT_255_1_388
10
21.5879046
20
68.7492466
40
0.6154183
50
269.9169897
51
276.339506
0
ARC
8
DEFAULT_255_1_388
10
21.5828646
20
68.672068
40
0.5382553
50
252.5221437
51
270.441579
0
ARC
8
DEFAULT_255_1_388
10
21.5666897
20
68.6114046
40
0.4755426
50
237.5349961
51
252.1858334
0
ARC
8
DEFAULT_255_1_388
10
21.5767273
20
68.624212
40
0.4917393
50
209.0632754
51
237.3492577
0
ARC
8
DEFAULT_255_1_388
10
21.6746599
20
68.6857104
40
0.6072464
50
205.118533
51
209.6465345
0
ARC
8
DEFAULT_255_1_388
10
21.7642601
20
68.7237174
40
0.7045164
50
188.7216633
51
204.8239753
0
ARC
8
DEFAULT_255_1_388
10
21.9889376
20
68.7615387
40
0.9323368
50
180.3722704
51
188.9253909
0
ARC
8
DEFAULT_255_1_388
10
21.9858938
20
68.8548416
40
0.929284
50
169.5253055
51
180.2766048
0
ARC
8
DEFAULT_255_1_388
10
21.7718737
20
68.8942024
40
0.7116745
50
155.8314601
51
169.5088611
0
ARC
8
DEFAULT_255_1_388
10
21.62782
20
68.9610312
40
0.5528904
50
139.6259579
51
156.0379072
0
ARC
8
DEFAULT_255_1_388
10
21.5614733
20
69.0144143
40
0.4677708
50
122.6414784
51
139.3431662
0
ARC
8
DEFAULT_255_1_388
10
21.5727988
20
68.9937787
40
0.4912586
50
93.0224537
51
122.4556091
0
ARC
8
DEFAULT_255_1_388
10
21.5849509
20
68.8851776
40
0.6003837
50
89.9756766
51
93.6340839
0
ARC
8
DEFAULT_255_1_388
10
21.5893107
20
68.9300879
40
0.5554884
50
73.7463329
51
90.4234008
0
ARC
8
DEFAULT_255_1_388
10
21.609058
20
69.0065772
40
0.4765353
50
57.663051
51
73.4516911
0
ARC
8
DEFAULT_255_1_388
10
21.6081618
20
69.0090108
40
0.4749629
50
29.1441355
51
57.4146687
0
ARC
8
DEFAULT_255_1_388
10
21.5029429
20
68.9433046
40
0.5988917
50
24.0985653
51
29.732054
0
ARC
8
DEFAULT_255_1_388
10
21.3867061
20
68.8951154
40
0.7246823
50
8.6654943
51
23.8241215
0
ARC
8
DEFAULT_255_1_388
10
21.1353479
20
68.8541037
40
0.9793537
50
359.7807044
51
8.8218476
0
ARC
8
DEFAULT_255_1_388
10
21.0063184
20
68.8569731
40
0.9358078
50
359.7054632
51
8.0359751
0
ARC
8
DEFAULT_255_1_388
10
21.3438235
20
68.9061252
40
0.5947474
50
7.8926278
51
20.2962188
0
ARC
8
DEFAULT_255_1_388
10
21.5269085
20
68.9736367
40
0.3996117
50
20.3231056
51
36.4990255
0
ARC
8
DEFAULT_255_1_388
10
21.6040383
20
69.0330399
40
0.3022818
50
36.1436715
51
85.6627846
0
ARC
8
DEFAULT_255_1_388
10
21.5857638
20
68.9160881
40
0.4203853
50
84.3845912
51
90.076054
0
ARC
8
DEFAULT_255_1_388
10
21.5809993
20
68.9903416
40
0.346157
50
89.3037228
51
109.9046209
0
ARC
8
DEFAULT_255_1_388
10
21.5705826
20
69.0333379
40
0.3022217
50
110.8229774
51
143.917961
0
ARC
8
DEFAULT_255_1_388
10
21.6756185
20
68.9531455
40
0.434348
50
143.5289166
51
163.2980252
0
ARC
8
DEFAULT_255_1_388
10
21.8902472
20
68.8856685
40
0.659321
50
163.0418884
51
174.3139873
0
ARC
8
DEFAULT_255_1_388
10
22.1607437
20
68.8544378
40
0.9315905
50
174.050934
51
179.4174954
0
ARC
8
DEFAULT_255_1_388
10
22.1039381
20
68.7625382
40
0.8747493
50
179.6928582
51
188.7908948
0
ARC
8
DEFAULT_255_1_388
10
21.8043181
20
68.7146086
40
0.5713262
50
188.6328449
51
202.5630732
0
ARC
8
DEFAULT_255_1_388
10
21.6632018
20
68.6579142
40
0.4192612
50
202.8078931
51
216.1195888
0
ARC
8
DEFAULT_255_1_388
10
21.5721535
20
68.5846479
40
0.3025752
50
215.0755613
51
264.6379773
0
ARC
8
DEFAULT_255_1_388
10
21.5864372
20
68.6781376
40
0.3970284
50
263.8464302
51
270.0830805
0
ARC
8
DEFAULT_255_1_388
10
21.5910917
20
68.6490808
40
0.3679937
50
269.3649295
51
287.5149684
0
ARC
8
DEFAULT_255_1_388
10
21.6111358
20
68.5762714
40
0.2925408
50
288.0629019
51
323.8115617
0
ARC
8
DEFAULT_255_1_388
10
21.5131334
20
68.6493754
40
0.4148018
50
323.6546541
51
342.6591359
0
ARC
8
DEFAULT_255_1_388
10
21.2845992
20
68.723728
40
0.6551163
50
342.4092446
51
353.6451501
0
ARC
8
DEFAULT_255_1_388
10
20.9660785
20
68.7633565
40
0.9760748
50
353.4027553
51
359.4846611
0
LINE
8
DEFAULT_255_1_388
10
23.1682507
20
68.5693468
11
23.3426387
21
68.5693468
0
LINE
8
DEFAULT_255_1_388
10
22.3297429
20
68.7482525
11
22.3297429
21
68.8747516
0
LINE
8
DEFAULT_255_1_388
10
23.3426387
20
69.0446217
11
23.1682507
21
69.0446217
0
LINE
8
DEFAULT_255_1_388
10
22.5041309
20
68.8702337
11
22.5041309
21
68.7428312
0
ARC
8
DEFAULT_255_1_388
10
22.7260621
20
68.6365329
40
0.6202263
50
340.1774904
51
353.7812217
0
ARC
8
DEFAULT_255_1_388
10
22.9028473
20
68.5706893
40
0.4315926
50
311.4560052
51
340.4420756
0
ARC
8
DEFAULT_255_1_388
10
22.8991013
20
68.5831665
40
0.4434573
50
282.4332229
51
310.7514507
0
ARC
8
DEFAULT_255_1_388
10
22.8496831
20
68.7873703
40
0.6535262
50
269.9358869
51
282.8096729
0
ARC
8
DEFAULT_255_1_388
10
22.8438771
20
68.9386329
40
0.8048043
50
269.9995752
51
270.3612856
0
ARC
8
DEFAULT_255_1_388
10
22.8379261
20
68.6587781
40
0.5249831
50
250.7885263
51
270.6488451
0
ARC
8
DEFAULT_255_1_388
10
22.8190085
20
68.5870853
40
0.4510942
50
219.3628377
51
250.0611024
0
ARC
8
DEFAULT_255_1_388
10
22.912296
20
68.6663653
40
0.5735046
50
193.5480293
51
219.5755675
0
ARC
8
DEFAULT_255_1_388
10
23.1791168
20
68.735652
40
0.849146
50
181.1220183
51
193.8754971
0
ARC
8
DEFAULT_255_1_388
10
23.4114402
20
68.7480914
40
1.0816971
50
179.9914644
51
181.5398227
0
ARC
8
DEFAULT_255_1_388
10
23.2037712
20
68.8789586
40
0.8740384
50
169.5837606
51
180.275782
0
ARC
8
DEFAULT_255_1_388
10
22.997106
20
68.9171439
40
0.6638751
50
155.0367033
51
169.6002779
0
ARC
8
DEFAULT_255_1_388
10
22.8693519
20
68.9787336
40
0.5220662
50
136.7831557
51
155.2472983
0
ARC
8
DEFAULT_255_1_388
10
22.8255309
20
69.0159577
40
0.4646502
50
121.7633063
51
136.4281161
0
ARC
8
DEFAULT_255_1_388
10
22.8407149
20
68.9879049
40
0.4964979
50
95.6460018
51
121.5489589
0
ARC
8
DEFAULT_255_1_388
10
22.8584123
20
68.8631704
40
0.6223912
50
89.9245727
51
96.1375919
0
ARC
8
DEFAULT_255_1_388
10
22.8640829
20
68.8765721
40
0.6090084
50
76.6779212
51
90.456405
0
ARC
8
DEFAULT_255_1_388
10
22.9083641
20
69.055506
40
0.42469
50
47.4858803
51
76.9287069
0
ARC
8
DEFAULT_255_1_388
10
22.8918255
20
69.0442623
40
0.4441778
50
16.5424081
51
46.8934505
0
ARC
8
DEFAULT_255_1_388
10
22.7109305
20
68.9848265
40
0.6345318
50
5.4072971
51
17.0363711
0
ARC
8
DEFAULT_255_1_388
10
22.549103
20
68.9588304
40
0.6250632
50
7.8888693
51
15.9242022
0
ARC
8
DEFAULT_255_1_388
10
22.7726015
20
69.0237309
40
0.3923364
50
15.7650676
51
27.9410069
0
ARC
8
DEFAULT_255_1_388
10
22.8968185
20
69.0902317
40
0.2514401
50
27.8167196
51
46.4007942
0
ARC
8
DEFAULT_255_1_388
10
22.9024026
20
69.0895882
40
0.2480958
50
47.4372362
51
75.0695672
0
ARC
8
DEFAULT_255_1_388
10
22.8676862
20
68.9687277
40
0.3738281
50
74.7009379
51
87.8124314
0
ARC
8
DEFAULT_255_1_388
10
22.8594479
20
68.8503659
40
0.4924321
50
87.3802571
51
90.0251599
0
ARC
8
DEFAULT_255_1_388
10
22.8551127
20
68.9823997
40
0.3604218
50
89.3451886
51
108.5744412
0
ARC
8
DEFAULT_255_1_388
10
22.8397119
20
69.0401836
40
0.3007661
50
109.2998307
51
143.3037387
0
ARC
8
DEFAULT_255_1_388
10
22.9254408
20
68.9742584
40
0.4089031
50
143.075267
51
163.1918576
0
ARC
8
DEFAULT_255_1_388
10
23.1450243
20
68.9049652
40
0.6391492
50
162.9375929
51
174.6208776
0
ARC
8
DEFAULT_255_1_388
10
23.4404625
20
68.8725711
40
0.9363344
50
174.342123
51
180.1430283
0
ARC
8
DEFAULT_255_1_388
10
23.3357166
20
68.7382117
40
0.8315986
50
179.6817261
51
189.150555
0
ARC
8
DEFAULT_255_1_388
10
23.0543915
20
68.6913559
40
0.5464044
50
188.9911061
51
203.5772363
0
ARC
8
DEFAULT_255_1_388
10
22.9329207
20
68.6409539
40
0.4149206
50
203.9075402
51
215.1312435
0
ARC
8
DEFAULT_255_1_388
10
22.8291004
20
68.5604907
40
0.2837747
50
213.9071511
51
263.8848919
0
ARC
8
DEFAULT_255_1_388
10
22.8431998
20
68.6487519
40
0.3730641
50
263.1757928
51
270.1031044
0
ARC
8
DEFAULT_255_1_388
10
22.8468077
20
68.7890511
40
0.5133712
50
269.6722503
51
279.0606936
0
ARC
8
DEFAULT_255_1_388
10
22.8768233
20
68.607615
40
0.3294739
50
278.8749101
51
293.6349581
0
ARC
8
DEFAULT_255_1_388
10
22.9128436
20
68.5230251
40
0.2375405
50
293.8553806
51
310.0518171
0
ARC
8
DEFAULT_255_1_388
10
22.9133945
20
68.5160021
40
0.2318463
50
311.0644687
51
332.0111037
0
ARC
8
DEFAULT_255_1_388
10
22.7792618
20
68.5899702
40
0.3850112
50
331.6586806
51
343.2877423
0
ARC
8
DEFAULT_255_1_388
10
22.5472084
20
68.6612806
40
0.6277712
50
343.1446576
51
351.0103568
0
ARC
8
DEFAULT_255_1_388
10
22.3839407
20
68.6912873
40
0.7937327
50
350.71248
51
351.1626997
0
LINE
8
DEFAULT_255_1_388
10
24.1621716
20
69.4683934
11
24.1919893
21
69.4683934
0
LINE
8
DEFAULT_255_1_388
10
24.1919893
20
69.4683934
11
24.1919893
21
69.3265338
0
LINE
8
DEFAULT_255_1_388
10
24.1919893
20
69.3265338
11
24.1612681
21
69.3265338
0
LINE
8
DEFAULT_255_1_388
10
23.5459407
20
68.6524747
11
23.5459407
21
68.7166278
0
LINE
8
DEFAULT_255_1_388
10
23.7140037
20
68.6949422
11
23.7140037
21
68.6334999
0
ARC
8
DEFAULT_255_1_388
10
24.1671572
20
68.7642826
40
0.562282
50
90.6001079
51
104.5146616
0
ARC
8
DEFAULT_255_1_388
10
24.1234532
20
68.92681
40
0.3939917
50
104.2855758
51
133.8630124
0
ARC
8
DEFAULT_255_1_388
10
24.1418784
20
68.9146243
40
0.4155734
50
134.5304124
51
161.6210222
0
ARC
8
DEFAULT_255_1_388
10
24.3278717
20
68.8490421
40
0.6127682
50
161.2850533
51
174.2074364
0
ARC
8
DEFAULT_255_1_388
10
24.4868283
20
68.8271437
40
0.7731446
50
173.7817938
51
174.9251711
0
ARC
8
DEFAULT_255_1_388
10
23.9742477
20
68.671627
40
0.3412588
50
95.8332067
51
138.995412
0
ARC
8
DEFAULT_255_1_388
10
23.9993757
20
68.5277695
40
0.4870358
50
89.8755506
51
97.0540979
0
ARC
8
DEFAULT_255_1_388
10
24.0047146
20
68.6217841
40
0.3930432
50
71.6407016
51
90.6240821
0
ARC
8
DEFAULT_255_1_388
10
24.021654
20
68.6841433
40
0.3285421
50
39.6368051
51
71.0190743
0
ARC
8
DEFAULT_255_1_388
10
23.9500447
20
68.6222586
40
0.4231706
50
10.6588054
51
39.9044509
0
ARC
8
DEFAULT_255_1_388
10
23.7758993
20
68.5844223
40
0.60133
50
359.6827842
51
11.1326896
0
ARC
8
DEFAULT_255_1_388
10
23.7714329
20
68.5764715
40
0.6058047
50
347.2485908
51
0.4371098
0
ARC
8
DEFAULT_255_1_388
10
23.9590114
20
68.5313379
40
0.4128987
50
318.1408565
51
347.6118497
0
ARC
8
DEFAULT_255_1_388
10
23.9955711
20
68.5012903
40
0.3656244
50
275.6342406
51
317.824739
0
ARC
8
DEFAULT_255_1_388
10
23.9707232
20
68.6474827
40
0.513655
50
269.8872513
51
276.7916069
0
ARC
8
DEFAULT_255_1_388
10
23.9645425
20
68.5321181
40
0.398323
50
246.9139443
51
270.7436787
0
ARC
8
DEFAULT_255_1_388
10
23.9652621
20
68.5161044
40
0.3839368
50
218.1665534
51
245.8780431
0
ARC
8
DEFAULT_255_1_388
10
24.0641993
20
68.5988903
40
0.5128958
50
191.4115343
51
218.6077624
0
ARC
8
DEFAULT_255_1_388
10
24.2822309
20
68.6477777
40
0.7363054
50
179.6344971
51
191.7836758
0
ARC
8
DEFAULT_255_1_388
10
24.9102183
20
68.7241495
40
1.3642984
50
171.4523743
51
180.3158856
0
ARC
8
DEFAULT_255_1_388
10
24.415791
20
68.8010895
40
0.8639311
50
157.9802296
51
171.6246761
0
ARC
8
DEFAULT_255_1_388
10
24.1667261
20
68.9004038
40
0.5958004
50
141.4299236
51
157.8541251
0
ARC
8
DEFAULT_255_1_388
10
24.0945344
20
68.9514746
40
0.5075416
50
102.871586
51
140.8564533
0
ARC
8
DEFAULT_255_1_388
10
24.1673897
20
68.6769943
40
0.7914163
50
90.377773
51
103.5868422
0
ARC
8
DEFAULT_255_1_388
10
23.9718418
20
68.6089543
40
0.2667015
50
89.8751238
51
126.2072139
0
ARC
8
DEFAULT_255_1_388
10
23.9769889
20
68.5915847
40
0.2838229
50
124.9742447
51
144.8960197
0
ARC
8
DEFAULT_255_1_388
10
23.9572134
20
68.6076981
40
0.2583845
50
145.2974778
51
160.2660922
0
ARC
8
DEFAULT_255_1_388
10
24.3028623
20
68.6299151
40
0.5888695
50
179.6512124
51
190.285571
0
ARC
8
DEFAULT_255_1_388
10
24.1123102
20
68.5939968
40
0.3949683
50
190.0944895
51
207.5099647
0
ARC
8
DEFAULT_255_1_388
10
24.0486684
20
68.5637177
40
0.3245464
50
207.9585471
51
216.325377
0
ARC
8
DEFAULT_255_1_388
10
24.0104321
20
68.5322712
40
0.2751259
50
215.7661336
51
232.5457193
0
ARC
8
DEFAULT_255_1_388
10
23.9673437
20
68.4775273
40
0.2054668
50
232.8005815
51
270.6605497
0
ARC
8
DEFAULT_255_1_388
10
23.9724861
20
68.5184853
40
0.2464268
50
269.3550767
51
288.474612
0
ARC
8
DEFAULT_255_1_388
10
23.9829368
20
68.4791721
40
0.2058436
50
289.1831976
51
322.9685307
0
ARC
8
DEFAULT_255_1_388
10
23.914147
20
68.5334279
40
0.2934408
50
322.6007085
51
346.5183319
0
ARC
8
DEFAULT_255_1_388
10
23.7839226
20
68.5666434
40
0.4278249
50
346.2584622
51
358.7739592
0
ARC
8
DEFAULT_255_1_388
10
23.6687801
20
68.5728829
40
0.5430876
50
358.3757628
51
0.0082477
0
ARC
8
DEFAULT_255_1_388
10
23.754462
20
68.5759856
40
0.4574157
50
359.6211417
51
11.28403
0
ARC
8
DEFAULT_255_1_388
10
23.8981226
20
68.6059535
40
0.3106708
50
11.0483152
51
31.8145585
0
ARC
8
DEFAULT_255_1_388
10
23.9328931
20
68.6248045
40
0.2711963
50
32.3028554
51
38.0820598
0
ARC
8
DEFAULT_255_1_388
10
23.9802164
20
68.6676717
40
0.2075566
50
36.8249851
51
85.741667
0
ARC
8
DEFAULT_255_1_388
10
23.9726577
20
68.6113065
40
0.2643487
50
85.0150021
51
90.050843
0
LINE
8
DEFAULT_255_1_388
10
21.9890367
20
77.4049898
11
21.9890367
21
76.0894
0
LINE
8
DEFAULT_255_1_388
10
21.9890367
20
76.0894
11
21.8155523
21
76.0894
0
LINE
8
DEFAULT_255_1_388
10
21.8155523
20
76.0894
11
21.8155523
21
77.4049898
0
LINE
8
DEFAULT_255_1_388
10
21.8155523
20
77.4049898
11
21.9890367
21
77.4049898
0
LINE
8
DEFAULT_255_1_388
10
23.31818
20
76.7878553
11
23.31818
21
76.7047274
0
LINE
8
DEFAULT_255_1_388
10
22.260106
20
76.6929811
11
22.260106
21
76.7878553
0
LINE
8
DEFAULT_255_1_388
10
23.1455992
20
76.6920775
11
23.1455992
21
76.7896625
0
LINE
8
DEFAULT_255_1_388
10
22.4326868
20
76.8014088
11
22.4326868
21
76.7047274
0
ARC
8
DEFAULT_255_1_388
10
22.3459538
20
76.7002726
40
0.9722364
50
350.4878118
51
0.2625322
0
ARC
8
DEFAULT_255_1_388
10
22.6039498
20
76.6558994
40
0.7104556
50
336.0277991
51
350.5787241
0
ARC
8
DEFAULT_255_1_388
10
22.7552605
20
76.5875243
40
0.544417
50
319.887443
51
336.1331163
0
ARC
8
DEFAULT_255_1_388
10
22.8230417
20
76.5332733
40
0.4576311
50
302.4806296
51
319.6144102
0
ARC
8
DEFAULT_255_1_388
10
22.8101038
20
76.5582067
40
0.4856183
50
275.8196423
51
302.1885521
0
ARC
8
DEFAULT_255_1_388
10
22.79139
20
76.6867466
40
0.6154183
50
269.9169897
51
276.339506
0
ARC
8
DEFAULT_255_1_388
10
22.78635
20
76.609568
40
0.5382553
50
252.5221437
51
270.441579
0
ARC
8
DEFAULT_255_1_388
10
22.7701751
20
76.5489046
40
0.4755426
50
237.5349961
51
252.1858334
0
ARC
8
DEFAULT_255_1_388
10
22.7802127
20
76.561712
40
0.4917393
50
209.0632754
51
237.3492577
0
ARC
8
DEFAULT_255_1_388
10
22.8781453
20
76.6232104
40
0.6072464
50
205.118533
51
209.6465345
0
ARC
8
DEFAULT_255_1_388
10
22.9677455
20
76.6612174
40
0.7045164
50
188.7216633
51
204.8239753
0
ARC
8
DEFAULT_255_1_388
10
23.192423
20
76.6990387
40
0.9323368
50
180.3722704
51
188.9253909
0
ARC
8
DEFAULT_255_1_388
10
23.1893792
20
76.7923416
40
0.929284
50
169.5253055
51
180.2766048
0
ARC
8
DEFAULT_255_1_388
10
22.9753591
20
76.8317024
40
0.7116745
50
155.8314601
51
169.5088611
0
ARC
8
DEFAULT_255_1_388
10
22.8313054
20
76.8985312
40
0.5528904
50
139.6259579
51
156.0379072
0
ARC
8
DEFAULT_255_1_388
10
22.7649588
20
76.9519143
40
0.4677708
50
122.6414784
51
139.3431662
0
ARC
8
DEFAULT_255_1_388
10
22.7762842
20
76.9312787
40
0.4912586
50
93.0224537
51
122.4556091
0
ARC
8
DEFAULT_255_1_388
10
22.7884363
20
76.8226776
40
0.6003837
50
89.9756766
51
93.6340839
0
ARC
8
DEFAULT_255_1_388
10
22.7927961
20
76.8675879
40
0.5554884
50
73.7463329
51
90.4234008
0
ARC
8
DEFAULT_255_1_388
10
22.8125434
20
76.9440772
40
0.4765353
50
57.663051
51
73.4516911
0
ARC
8
DEFAULT_255_1_388
10
22.8116472
20
76.9465108
40
0.4749629
50
29.1441355
51
57.4146687
0
ARC
8
DEFAULT_255_1_388
10
22.7064283
20
76.8808046
40
0.5988917
50
24.0985653
51
29.732054
0
ARC
8
DEFAULT_255_1_388
10
22.5901915
20
76.8326154
40
0.7246823
50
8.6654943
51
23.8241215
0
ARC
8
DEFAULT_255_1_388
10
22.3388333
20
76.7916037
40
0.9793537
50
359.7807044
51
8.8218476
0
ARC
8
DEFAULT_255_1_388
10
22.2098038
20
76.7944731
40
0.9358078
50
359.7054632
51
8.0359751
0
ARC
8
DEFAULT_255_1_388
10
22.5473089
20
76.8436252
40
0.5947474
50
7.8926278
51
20.2962188
0
ARC
8
DEFAULT_255_1_388
10
22.7303939
20
76.9111367
40
0.3996117
50
20.3231056
51
36.4990255
0
ARC
8
DEFAULT_255_1_388
10
22.8075237
20
76.9705399
40
0.3022818
50
36.1436715
51
85.6627846
0
ARC
8
DEFAULT_255_1_388
10
22.7892492
20
76.8535881
40
0.4203853
50
84.3845912
51
90.076054
0
ARC
8
DEFAULT_255_1_388
10
22.7844847
20
76.9278416
40
0.346157
50
89.3037228
51
109.9046209
0
ARC
8
DEFAULT_255_1_388
10
22.774068
20
76.9708379
40
0.3022217
50
110.8229774
51
143.917961
0
ARC
8
DEFAULT_255_1_388
10
22.8791039
20
76.8906455
40
0.434348
50
143.5289166
51
163.2980252
0
ARC
8
DEFAULT_255_1_388
10
23.0937326
20
76.8231685
40
0.659321
50
163.0418884
51
174.3139873
0
ARC
8
DEFAULT_255_1_388
10
23.3642291
20
76.7919378
40
0.9315905
50
174.050934
51
179.4174954
0
ARC
8
DEFAULT_255_1_388
10
23.3074235
20
76.7000382
40
0.8747493
50
179.6928582
51
188.7908948
0
ARC
8
DEFAULT_255_1_388
10
23.0078035
20
76.6521086
40
0.5713262
50
188.6328449
51
202.5630732
0
ARC
8
DEFAULT_255_1_388
10
22.8666872
20
76.5954142
40
0.4192612
50
202.8078931
51
216.1195888
0
ARC
8
DEFAULT_255_1_388
10
22.7756389
20
76.5221479
40
0.3025752
50
215.0755613
51
264.6379773
0
ARC
8
DEFAULT_255_1_388
10
22.7899226
20
76.6156376
40
0.3970284
50
263.8464302
51
270.0830805
0
ARC
8
DEFAULT_255_1_388
10
22.7945771
20
76.5865808
40
0.3679937
50
269.3649295
51
287.5149684
0
ARC
8
DEFAULT_255_1_388
10
22.8146212
20
76.5137714
40
0.2925408
50
288.0629019
51
323.8115617
0
ARC
8
DEFAULT_255_1_388
10
22.7166188
20
76.5868754
40
0.4148018
50
323.6546541
51
342.6591359
0
ARC
8
DEFAULT_255_1_388
10
22.4880846
20
76.661228
40
0.6551163
50
342.4092446
51
353.6451501
0
ARC
8
DEFAULT_255_1_388
10
22.1695639
20
76.7008565
40
0.9760748
50
353.4027553
51
359.4846611
0
LINE
8
DEFAULT_255_1_388
10
24.1612056
20
77.4058934
11
24.1910232
21
77.4058934
0
LINE
8
DEFAULT_255_1_388
10
24.1910232
20
77.4058934
11
24.1910232
21
77.2640338
0
LINE
8
DEFAULT_255_1_388
10
24.1910232
20
77.2640338
11
24.1603021
21
77.2640338
0
LINE
8
DEFAULT_255_1_388
10
23.5449747
20
76.5899747
11
23.5449747
21
76.6541278
0
LINE
8
DEFAULT_255_1_388
10
23.7130376
20
76.6324422
11
23.7130376
21
76.5709999
0
ARC
8
DEFAULT_255_1_388
10
24.1661912
20
76.7017826
40
0.562282
50
90.6001079
51
104.5146616
0
ARC
8
DEFAULT_255_1_388
10
24.1224872
20
76.86431
40
0.3939917
50
104.2855758
51
133.8630124
0
ARC
8
DEFAULT_255_1_388
10
24.1409124
20
76.8521243
40
0.4155734
50
134.5304124
51
161.6210222
0
ARC
8
DEFAULT_255_1_388
10
24.3269056
20
76.7865421
40
0.6127682
50
161.2850533
51
174.2074364
0
ARC
8
DEFAULT_255_1_388
10
24.4858623
20
76.7646437
40
0.7731446
50
173.7817938
51
174.9251711
0
ARC
8
DEFAULT_255_1_388
10
23.9732817
20
76.609127
40
0.3412588
50
95.8332067
51
138.995412
0
ARC
8
DEFAULT_255_1_388
10
23.9984097
20
76.4652695
40
0.4870358
50
89.8755506
51
97.0540979
0
ARC
8
DEFAULT_255_1_388
10
24.0037486
20
76.5592841
40
0.3930432
50
71.6407016
51
90.6240821
0
ARC
8
DEFAULT_255_1_388
10
24.020688
20
76.6216433
40
0.3285421
50
39.6368051
51
71.0190743
0
ARC
8
DEFAULT_255_1_388
10
23.9490787
20
76.5597586
40
0.4231706
50
10.6588054
51
39.9044509
0
ARC
8
DEFAULT_255_1_388
10
23.7749333
20
76.5219223
40
0.60133
50
359.6827842
51
11.1326896
0
ARC
8
DEFAULT_255_1_388
10
23.7704669
20
76.5139715
40
0.6058047
50
347.2485908
51
0.4371098
0
ARC
8
DEFAULT_255_1_388
10
23.9580454
20
76.4688379
40
0.4128987
50
318.1408565
51
347.6118497
0
ARC
8
DEFAULT_255_1_388
10
23.9946051
20
76.4387903
40
0.3656244
50
275.6342406
51
317.824739
0
ARC
8
DEFAULT_255_1_388
10
23.9697572
20
76.5849827
40
0.513655
50
269.8872513
51
276.7916069
0
ARC
8
DEFAULT_255_1_388
10
23.9635764
20
76.4696181
40
0.398323
50
246.9139443
51
270.7436787
0
ARC
8
DEFAULT_255_1_388
10
23.964296
20
76.4536044
40
0.3839368
50
218.1665534
51
245.8780431
0
ARC
8
DEFAULT_255_1_388
10
24.0632332
20
76.5363903
40
0.5128958
50
191.4115343
51
218.6077624
0
ARC
8
DEFAULT_255_1_388
10
24.2812649
20
76.5852777
40
0.7363054
50
179.6344971
51
191.7836758
0
ARC
8
DEFAULT_255_1_388
10
24.9092523
20
76.6616495
40
1.3642984
50
171.4523743
51
180.3158856
0
ARC
8
DEFAULT_255_1_388
10
24.414825
20
76.7385895
40
0.8639311
50
157.9802296
51
171.6246761
0
ARC
8
DEFAULT_255_1_388
10
24.1657601
20
76.8379038
40
0.5958004
50
141.4299236
51
157.8541251
0
ARC
8
DEFAULT_255_1_388
10
24.0935684
20
76.8889746
40
0.5075416
50
102.871586
51
140.8564533
0
ARC
8
DEFAULT_255_1_388
10
24.1664237
20
76.6144943
40
0.7914163
50
90.377773
51
103.5868422
0
ARC
8
DEFAULT_255_1_388
10
23.9708758
20
76.5464543
40
0.2667015
50
89.8751238
51
126.2072139
0
ARC
8
DEFAULT_255_1_388
10
23.9760229
20
76.5290847
40
0.2838229
50
124.9742447
51
144.8960197
0
ARC
8
DEFAULT_255_1_388
10
23.9562474
20
76.5451981
40
0.2583845
50
145.2974778
51
160.2660922
0
ARC
8
DEFAULT_255_1_388
10
24.3018962
20
76.5674151
40
0.5888695
50
179.6512124
51
190.285571
0
ARC
8
DEFAULT_255_1_388
10
24.1113442
20
76.5314968
40
0.3949683
50
190.0944895
51
207.5099647
0
ARC
8
DEFAULT_255_1_388
10
24.0477024
20
76.5012177
40
0.3245464
50
207.9585471
51
216.325377
0
ARC
8
DEFAULT_255_1_388
10
24.0094661
20
76.4697712
40
0.2751259
50
215.7661336
51
232.5457193
0
ARC
8
DEFAULT_255_1_388
10
23.9663777
20
76.4150273
40
0.2054668
50
232.8005815
51
270.6605497
0
ARC
8
DEFAULT_255_1_388
10
23.9715201
20
76.4559853
40
0.2464268
50
269.3550767
51
288.474612
0
ARC
8
DEFAULT_255_1_388
10
23.9819708
20
76.4166721
40
0.2058436
50
289.1831976
51
322.9685307
0
ARC
8
DEFAULT_255_1_388
10
23.913181
20
76.4709279
40
0.2934408
50
322.6007085
51
346.5183319
0
ARC
8
DEFAULT_255_1_388
10
23.7829566
20
76.5041434
40
0.4278249
50
346.2584622
51
358.7739592
0
ARC
8
DEFAULT_255_1_388
10
23.6678141
20
76.5103829
40
0.5430876
50
358.3757628
51
0.0082477
0
ARC
8
DEFAULT_255_1_388
10
23.753496
20
76.5134856
40
0.4574157
50
359.6211417
51
11.28403
0
ARC
8
DEFAULT_255_1_388
10
23.8971566
20
76.5434535
40
0.3106708
50
11.0483152
51
31.8145585
0
ARC
8
DEFAULT_255_1_388
10
23.9319271
20
76.5623045
40
0.2711963
50
32.3028554
51
38.0820598
0
ARC
8
DEFAULT_255_1_388
10
23.9792504
20
76.6051717
40
0.2075566
50
36.8249851
51
85.741667
0
ARC
8
DEFAULT_255_1_388
10
23.9716917
20
76.5488065
40
0.2643487
50
85.0150021
51
90.050843
0
ENDSEC
0
EOF